From: [email protected] (Larry Meadows)

This song is submitted by my son, Shaun Diquisto. He does not
yet have his own e-mail address but I'll be happy to forward
any comments to him.

Group: Weezer
Song:Jamie
Album: Not on a Weezer album but on a C.D. called DGC

rarities(a collection of rare songs).
Transcribed by:Shaun Diquisto.

For this song I use a DOD effects pedal #52 "Classic fuzz".
This song is pretty easy song to play. Im not sure if these
are the exact chords but it sure as hell sounds like it.

To play this song correctly it would help if you've heard it
before.

At the very beginning of the song theres a little bit of
feedback then an acoustic guitar strums verse 1 about 2x.
Then this starts.
(effects pedal on).

Verse 1
-------------------|-------------------|--------------------
-------------------|-------------------|--------------------
-------------------|-------------------|--------------------
---9---9---9---9-9-|---4---4---4---4-4-| Repeat several X's.
---9---9---9---9-9-|---4---4---4---4-4-|
---7---7---7---7-7-|---2---2---2---2-2-|
(verse 2)
-------------------|-------------------|------------------|-
-------------------|-------------------|------------------|-
-------------------|-------------------|------------------|-
---9---9---9---9-9-|---4---4---4---4-4-|--6---6---6---6-6-|
---9---9---9---9-9-|---4---4---4---4-4-|--6---6---6---6-6-|
---7---7---7---7-7-|---2---2---2---2-2-|--4---4---4---4-4-|

-------------------|
-------------------|
-------------------|
---2---2---2---2-2-|
---2---2---2---2-2-|
---0---0---0---0-0-|
Repeat verse 1 twice.

Repeat verse 2 once.

repeat verse 1 twice.

Now play this fill thing once....Play it fast 16th notes!
------------|------------|------------|------------|--------
------------|------------|------------|------------|--------
---8-8-8-8-8|------------|------------|------------|--------
---8-8-8-8-8|---8-8-8-8-8|---9-9-9-9-9|---6-6-6-6-6|
---6-6-6-6-6|---8-8-8-8-8|---9-9-9-9-9|---6-6-6-6-6|
------------|---6-6-6-6-6|---7-7-7-7-7|---4-4-4-4-4|

(chorus)
-------------------------------|----------------------------
-------------------------------|----------------------------
-------------------------------|----------------------------
--9---9---9---9---9---9---9---9|-13--13-13--13-13--13-13--13
--9---9---9---9---9---9---9---9|-13--13-13--13-13--13-13--13
--7---7---7---7---7---7---7---7|-11--11-11--11-11--11-11--11

-------------------------------|----------------------------
-------------------------------|----------------------------
--6---6---6---6-|--4---4---4---4|--2---2---2---2---2---2---2
--6---6---6---6-|--4---4---4---4|--2---2---2---2---2---2---2
--4---4---4---4-|--2---2---2---2|--0---0---0---0---0---0---0

-------------------------------|----------------------------
-------------------------------|----------------------------
--9---9---9---9---9---9---9---9|-4---4---4---4---4---4--4--4
--9---9---9---9---9---9---9---9|-4---4---4---4---4---4--4--4
--7---7---7---7---7---7---7---7|-2---2---2---2---2---2--2--2

Verse 1 twice.

Verse 2 once.

verse 1 twice.

fill thing.

chorus.

I cant remember how the solo goes but its not that hard to
figure out. I hope you enjoy this tab of jamie!
Shaun Diquisto..............................................




Ваше мнение



Капча