Song : Island In The Sun
Band : Weezer
Tabbed By : Diamond Jerry ([email protected])
Standard Tuning
it's a fun song....one of my favourite song....!!!
------------------------------------------------------------------------------
[Intro]

(Riff)
e|--3-3--3---5-5---2-2---3-3----|
B|--5-5--5---5-5---3-3---3-3----|
G|--4-4--4---5-5---2-2---4-4----| (4x)
D|------------------------------|
A|------------------------------|
E|------------------------------|
[Intro & Verse] Em - Am - D - G

e|--0-0-0---0-0-0---2-2-2---3-3-3----------|
B|--0-0-0---1-1-1---3-3-3---3-3-3----------|
G|--0-0-0---2-2-2---2-2-2---0-0-0----------| (10x)
D|--2-2-2---2-2-2---0-0-0---0-0-0----------|
A|--2-2-2---0-0-0---0-0-0---2-2-2----------|
E|--0-0-0---0-0-0---0-0-0---3-3-3----------|
(fill in)
e|-----------------------------------------|
B|-----8---8---10--10----7---7----8---8----|
G|---9---9----9---9----7---7----7---7------|
D|-----------------------------------------|
A|-----------------------------------------|
E|-----------------------------------------|
-repeat intro-
-repeat verse-
[Chorus] Hard distortion!!!
e|---------------------------------------------------------------------------|
B|---------------------------------------------------------------------------|
G|--77777777--------------------55555555--------------7777777777777777-------|
D|--77777777---55555555--(2x)---55555555---77777777---7777777777777777-------|
A|--55555555---55555555---------33333333---77777777---5555555555555555-------|
E|-------------33333333--------------------55555555--------------------------|
-repeat intro-
[Solo] Em - Am - D - G
e|---------------------------------------------------------------------------|
B|---------------------------------------------------------------------------|
G|--7-h9-7--5-4/-5-4~----2-h4-2--------------------------------------------|
D|---------------------------------5-4--5-5~----(2x)-------------------------|
A|---------------------------------------------------------------------------|
E|---------------------------------------------------------------------------|
-repeat verse & chorus-
-repeat intro & fade out-
------------------------------------------------------------------------------
Any comments or corrections,just mail me to [email protected]/ICQ #115343571




Ваше мнение



Капча