intro:
E------3-----------5-----------2-----------3------------------------------------------------------
B------5-----------5-----------3-----------3------------------------------------------------------
G------4----------5------------2-----------4------------------------------------------------------
D-----------------------------------------------------------------------------------------------------
A-----------------------------------------------------------------------------------------------------
E-----------------------------------------------------------------------------------------------------

pretty much play this through most of the song for the Cuomo's lead guitar part.

Play this next part when lyrics get to "We'll have some fun together"

E--------3------------2------
B--------3------------3------
G--------0------------2------ play this 2x
D--------0------------0------
A--------2------------0------
E--------3------------0------

outro:

E------0---------3----------2---
B------1---------3----------3---
G------0---------0----------2---
D------2---------0----------0--- listen to album for correct strumming
A------3----------2---------0---
E------0----------3---------0---

solo:
-Played w/distortion

E-------------------------------------------------------------------------------------------------------
B------------------------------------------------------------------------------------------------------
G----0-----9------7------5-----4------5------4-----0--------------------------------------------
D-----------------------------------------------------------------9------7-----5-----4-----5-----4
A-------------------------------------------------------------------------------------------------------
E-------------------------------------------------------------------------------------------------------

well, that's about it. I know there is some mistakes so if you find any, feel free to correct them.




Ваше мнение



Капча