This is tabbed by me. DUH!

e|------------------------------------------------|
B|------------------------------------------------|
G|---7-9-7----------------------------------------|
D|---------10-9-10-9-7-9-7-75-4-5-5--------------|
A|------------------------------------------------|
E|------------------------------------------------|

e|------------------------------------------------|
B|------------------------------------------------|
G|---7-9-7----------------------------------------|
D|---------10-9-10-9-7-9-7-75-4-5-5~~~~~~--------|
A|------------------------------------------------|
E|------------------------------------------------|

Play that twice.
means slide down i believe for those who are new?
~ means let ring for those who are new. Just thought I'd put the most correct
sounding version to me. Those other two solos confused me. ;~s. Sorry for adding
that little face. I am retarded. But setiously, never put carrots up your nose.
People will probably rate this as a 0 because of my idiotic comments. Oh well!




Ваше мнение



Капча