----------------------------------------------------------------------
In the garage (solo) - Weezer
----------------------------------------------------------------------

By: [email protected]
Tuning: Ѕ down

eb|---------------------|-----------------------------------|
Bb|--5--5--5--5--7--9---|--------12-------14-------16-------|
Gb|--7b-7b-7b-7b-9b-11b-|--14bvv----16bvv----18bvv----19bvv-|
Db|---------------------|-----------------------------------|
Ab|---------------------|-----------------------------------|
Eb|---------------------|-----------------------------------|

eb|-0---0--0--0--0--0---|---9-/-18-----------9-/-19vvv------|
Bb|-3/5-5--5--5--7--9---|------------9-/-18-----------------|
Gb|---------------------|-----------------------------------|
Db|---------------------|-----------------------------------|
Ab|---------------------|-----------------------------------|
Eb|---------------------|-----------------------------------|

eb|-0---0--0--0--0--0---|-----------------------------------|
Bb|-3/5-5--5--5--7--9---|---15vvv--13—12br------------------|
Gb|---------------------|:-----------------14—12vv---------:| X2
Db|---------------------|:---------------------------------:|
Ab|---------------------|-----------------------------------|
Eb|---------------------|-----------------------------------|

eb|------------------------------------------------15-17b-b-15-------|
Bb|15-12-15/17vv-15/17-15-12---------------15—-15/17-----------17-15-|
Gb|-------------------------14-12--12-14/16--16----------------------|
Db|------------------------------14----------------------------------|
Ab|------------------------------------------------------------------|
Eb|------------------------------------------------------------------|

this is my first tab so i would appreciate some input




Ваше мнение



Капча