Artist: Weezer
Song: I Swear It's True
Album: Blue Album Deluxe Edition
Main Riff: (Played throughout the entire song, except the bridge):

Eb---------------------------
Bb---------------------------
Gb------------6--4----6------
Db-2----4--6--6--4----6--6--4
Ab-2----4--6--4--2----4--6--4
Eb-0----2--4-------------4--2
Intro: (Keyboard)
Uuuuhhh Huh Huh
Eb-12~-----(12)----------5----5
Bb------------------------------
Gb------------------------------
Db------------------------------
Ab------------------------------
Eb------------------------------
Verse 1:
It's been two and a half years now
That we've been apart
I've been kinda spaced out lately
Can't seem to get you out, of my mind
Chorus: (Keybord arranged for Guitar)
I really miss you girl
Eb-------------------------/16----(16)-14--12
Bb---------------------------------------------
Gb---------------------------------------------
Db---------------------------------------------
Ab---------------------------------------------
Eb---------------------------------------------
I really do
eb-------------------------/16----(16)-14--12
Bb---------------------------------------------
Gb---------------------------------------------
Db---------------------------------------------
Ab---------------------------------------------
Eb---------------------------------------------
You think I'm crazy but
eb-------------------------/16----(16)-14--11
Bb---------------------------------------------
Gb---------------------------------------------
Db---------------------------------------------
Ab---------------------------------------------
Eb---------------------------------------------
I swear it's true
Post Chorus:
Eb----------------------------------
Bb---5-----5-----5---------5-----5--
Gb------8----8-8--------------8----8
Db----------------------------------
Ab----------------------------------
Eb----------------------------------
Verse 2:
You think I'd have given up
Found somebody new
But no girl's got what you got
I belong to you
Bridge (x2): (Keyboard)
Bb5
Oh-oh-whoa-oh-whoa
Eb-11h12p11h12p11--------------
Bb-----------------------------
Gb-----------------------------
Db-----------------------------
Ab-----------------------------
Eb-----------------------------
Ab5
Oh-oh-whoa-oh-whoa-oo
Eb-9h11p9h11p9-----------------
Bb-----------------------------
Gb-----------------------------
Db-----------------------------
Ab-----------------------------
Eb-----------------------------
Guitar solo:
Eb-------------------------------15b16-15b16--14-12------------
Bb-9-------------------------------------------------16-14-12~-
Gb-x----------------------------------------------------------
Db-9-----------(pickscrape)-----------------------------------
Ab-7----------------------------------------------------------
Eb-------------------------------------------------------------
Eb-17b19--16-14-16-----------------------------------
Bb------------------16~--14-12---14------------------
Gb----------------------------------13---11----------
Db------------------------------------------13-14-13~
Ab---------------------------------------------------
Eb---------------------------------------------------
Outro: (Keyboard arranged for Guitar)
I swear it's true (I swear it's true)
Eb----------------------16-14----16---12---------
Bb-----------------------------------------------
Gb-----------------------------------------------
Db-----------------------------------------------
Ab-----------------------------------------------
Eb-----------------------------------------------




Ваше мнение



Капча