Artist: Weezer
Song: I Just Threw Out The :Love of My Dreams
Album: The Good Life (Ep)/ Pinkerton B-Side
Tuning: 1/2 Step
Intro: (moog)
(slide to a and sustain)
Eb --------
Bb --------
Gb --/2----
Db --------
Ab --------
Eb --------
Verse:
F# B E A
I'm so tall, can't get over me
F# B E A
I'm so low, can't get underneath
F# B E A
I must be all these things,
F# B E A
for I just threw out the love of my dreams
Chorus:
F# B E A
He is in my eyes, he is in my ears
F# B E A
He is in my blood, he is in my tears
F# B E A
I breathe love, and see him every day
F# B E A
Even though my love is a world away
Bridge:
C# D
Oh he's got me wandering
Eb --------------------
Bb ----------------14--
Gb --13-14-13--11------
Db --------------------
Ab --------------------
Eb --------------------
B E
My righteousness is crumbling
Eb --------------------
Bb ----------------17--
Gb --13-14-13--11------
Db --------------------
Ab --------------------
Eb --------------------
Verse 2:
Never before, have I felt this way
No one is right, but I want for him to stay
I must be made of steel,
for I just threw out the love of my dreams
Chorus:
He's in my eyes, he's in my ears
He's in my blood, he is in my tears
I breathe love, and see him every day
Even though my love is a world away
Bridge:
Oh he's got me wandering
My righteousness is crumbling

solo:
(played over verse/chorus chords: F# B E A)
( Pick Scrape in)
Eb --------------------------------------------------------------
Bb --/17--15--14-14-15-14-14-------------------------------------
Gb ---------------------------16--14--16-16-16-16^--14-13-14-----
Db --------------------------------------------------------------
Ab --------------------------------------------------------------
Eb---------------------------------------------------------------
Eb ---17-16-14-------------------------------------------
Bb ------------17-15-14-12-14----------------------------
Gb ------------------------------------------------------
Db ------------------------------------------------------
Ab ------------------------------------------------------
Eb ------------------------------------------------------
Eb -------16--14-----------14--12------------------------
Bb --------------14--12------------14--12----------------
Gb ---------------------------------------14------------
Db ------------------------------------------------------
Ab ------------------------------------------------------
Eb ------------------------------------------------------
Bridge:
Oh he's got me wandering
My righteousness is crumbling
And I see him every day
Even though my love can walk away.
Chorus:
He's in my eyes, he's in my ears
He's in my blood, he is in my tears
I must be made of steel,
for I just threw out the love of my dreams.




Ваше мнение



Капча