This it staight out of my guitare book so it is competly
100% correct. So injoy.

Intro
|----------------------------------------------|
|----------------------------------------------| (X2)
|-------------------------------------------5--|
|-------------------------------------------5--|
|-0-0-2-3--0-0-2-3--0-0-2-3--0-0-2-3--3--|
|-------------------------------------------3--|

|------------| |-------------|
|------------| (x7) |-------------|
|------------| |---------5---|
|------------| |---------5---|
|--0-0-2-3-| |--0-0-2-3---|
|------------| |---------3---|

Chorus
|---------------------------------------
|---------------------------------------
|-7--7--7-7-9-7-1-7-7-7---7-7-7-7--
|-7--7--7-7-9-7-1-7-7-7---7-7-7-7--
|-5--5--5-5-7-5-1-5-5-5---5-5-5-5--
|-5--5--5-5-7-5-1-5-5-5---5-5-5-5--

|-------------------------------------------
|-------------------------------------------
|------4-5-------4-5------4-5-------4-5--
|------4-5-------4-5------4-5-------4-5--
|-0-0-2-3--0-0-2-3--0-0-2-3--0-0-2-3--
|-------------------------------------------

|-------------------------------------
|-------------------------------------
|-7--7--7-7-9-7--7-7-7--7-7-7-7--
|-7--7--7-7-9-7--7-7-7--7-7-7-7--
|-5--5--5-5-7-5--5-5-5--5-5-5-5--
|-5--5--5-5-7-5--5-5-5--5-5-5-5--

W/Voc Fill 1 (4 times)
|-----------------------
|-----------------------
|-10-10-10-10--(X4)
|-10-10-10-10-------
|--8--8--8--8---------
|--8--8--8--8---------

|-------------
|------------- (X4)
|--9-9-9-9--
|--9-9-9-9--
|--7-7-7-7--
|--7-7-7-7--

|------------
|------------- (X4)
|--7-7-7-7--
|--7-7-7-7--
|--5-5-5-5--
|--5-5-5-5--

|------------
|------------ (X4)
|--5-5-5-5--
|--5-5-5-5--
|--3-3-3-3--
|--3-3-3-3--

OK I'M Tired of writing you want the rest email me at
[email protected]

I'm thinking of making a web sit, with everything from guitar tabs (acoustic, electric and bass), drum tabs, lyrics cars and more.




Ваше мнение



Капча