intro and verse

e-----------------------------------------------------
b-----------------------------------------------------
g---------------------------------------------9-------
d-------9-----------4-----------6-----------9---------
a----9-----------4-----------6-----------7--------5---
e-7-------7---2--------2---4--------4-----------------

chorus

e----------------------------------------------
b----------------------------------------------
g-------------------------------9-x------------
d-9-9-x-x-x-x-4-4-x-6-6-x-x-x-x-9-x------------
a-9-9-x-x-x-x-4-4-x-6-6-x-x-x-x-7-x------------
e-7-7-x-x-x-x-2-2-x-4-4-x-x-x-x----------------




Ваше мнение



Капча