Tabbed By: RustyStriker
E-mail: [email protected]
Song: Weezer - Glorious Day
Album: Green Album
This is the accurate tab of the song
Standard Tuning - E A D G B e
Both guitars with slight distortion
Intro:

Guitar 1
e||--------------------------------------------------------
B|--------------------------------------------------------
G||---------6-7-9-6-----4---2---4---6---------6-7-9-6------
D||-------------------0---0---0---0--------7---------------
A||-------------------------------------0------------------
E||--------------------------------------------------------
e||--------------------------------------------------------
B||--------------------------------------------------------
G||---4---2---4----6h7p6---------6-7-9-6----4---2---4---6--
D||-0---0-------------------7-------------0---0---0---0----
A||-----------------------0--------------------------------
E||--------------------------------------------------------
Going Into Verse
e||---------5---5/7---7/9---9--9--9--9--9--9--9--9--9--9---
B||---------x---x-----x-----x--x--x--x--x--x--x--x--x--x---
G||-(6)-4-4-2---2/4---4/6---6--6--6--6--6--6--6--6--6--6---
D||--------------------------------------------------------
A||--------------------------------------------------------
E||--------------------------------------------------------

Guitar 2
e||--------------------------------------------------------
B||--------------------------------------------------------
G||---2---2---2---2-----2---2---2---2---------------------- Repeat 2x
D||-----2---2---2-----0---0---0---0------------------------
A||-0------------------------------------------------------
E||--------------------------------------------------------
e||--------------------------------------------------------
B||--------------------------------------------------------
G||---2---2-----2---2----2---2---2---2---------------------
D||-----2---------2----0---0---0---0-----------------------
A||-0--------0---------------------------------------------
E||--------------------------------------------------------
Going Into Verse
e||--------------------------------------------------------
B||--------------------------------------------------------
G||--------------------------------------------------------
D||--------------------------------------------------------
A||----------5--5--5--5--4--4--4--4--4--4-----4-----4------
E||-4--4--4--4--4--4--4--4--4--4--4--4--4-----4-----4------
VERSE
Guitar 1 and 2
Gonna make it stay...
e||--------------------------------------------------------
B||--------------------------------------------------------
G||--------------------------------------------------------
D||--------------------------------------------------------
A||--4--4--4--4--4--4----4----4----------------------------
E||--2--2--2--2--2--2----2----2----------------------------
Gonna make it last,......
e||----------------------------------------------------------------
B||----------------------------------------------------------------
G||----------------------------------------------------------------
D||----------------------------------------------------------------
A||-7--7--7--7--7--7----7----7----2--2--2---2---2--2--2----2----2--
E||-5--5--5--5--5--5----5----5----0--0--0---0---0--2--2----2----2--
Hey...Hey... you know what you want me...
e||----------------------------------------------------------------
B||----------------------------------------------------------------
G||----------------------------------------------------------------
D||----------------------------------------------------------------
A||-5-5-5-5-5-5-5-5--4-4-4-4-4-4-4-4--2-2-2-2-2-2-2-2--------------
E||-5-5-5-5-5-5-5-5--4-4-4-4-4-4-4-4--2-2-2-2-2-2-2-2--------------
Right RIght.....
e||-----------------------------------------------------------------------
B||-----------------------------------------------------------------------
G||-----------------------------------------------------------------------
D||---------------------6--7--7--7--7--7--7--7--7---6--6--6--6--6--6--6--6
A||-2---2--2--2--x-x-x--4--5--5--5--5--5--5--5--5---4--4--4--4--4--4--4--4
E||-2---2--2--2--x-x-x--4--5--5--5--5--5--5--5--5---4--4--4--4--4--4--4--4

e||-----------------------------------------------------------------------
B||-----------------------------------------------------------------------
G||-----------------------------------------------------------------------
D||-4--4--4--4--4--4--4--4---4---4--4--4--4---4---4-----------------------
A||-2--2--2--2--2--2--2--2---2---2--2--2--2---2---2-----------------------
E||-2--2--2--2--2--2--2--2---2---2--2--2--2---2---2-----------------------
Then Repeat Verse one more time.
before Chorus
Guitar 1
e||-------------------------------
B||-------------------------------
G||-------------------------------
D||--4----4--4--4--4--4--4--4--4--
A||--2----2--2--2--2--2--2--2--2--
E||--2----2--2--2--2--2--2--2--2--
Chorus
Guitar 2
Glorious children on......
e||-----------------------------------------------------------
B||-------5--------------------------------------5------------
G||-6--7-----6---4----2----4----6----------6--7-----6---------
D||-----------------------------------7-----------------------
A||-----------------------------------------------------------
E||-----------------------------------------------------------
e||--------------------------------------------------------7-----9---
b||-------------------------------------5------------------x-----x---
g||-(6)--4---2---4---6h7p6------6---7-----6----4-----3-----4-----6---
D||------------------------------------------------------------------
A||------------------------------------------------------------------
E||------------------------------------------------------------------
--7---5---7---9-----
--x---x---x---x-----
--4---2---4---6-----
--------------------
--------------------
--------------------

Guitar 1
E||-----------------|
A||=----------------|
D||----------7-x8---| Repeat 3x behind guitar 2
G||----7-x8--7------|
B||----7-----5------|
e||----5------------|
E||-----------------|
A||=----------------|
D||----------6-x4---|
G||----6-x8--6------|
B||----6-----4------|
e||----4------------|
Solo
Guitar 1

e||------------------------------------------------------------------------
b||-------------------------7--7----------------7--7-----------------------
g||------------------------------6--------------------6--------------------
D||-----------------------------------9---8---------------9----7-----------
A||------------------------------------------------------------------------
E||------------------------------------------------------------------------
e||------------------------------------------------------------------------
b||------------10-10-10-10-12---12---12-12-12-12-12---12-12-12-12----10----
g||-------------X--X--X--X--X----X----X--X--X--X--X----X--X--X--X-----x----
D||--(7)--------7--7--7--7--9----9----9--9--9--9--9----9--9--9--9-----7----
A||------------------------------------------------------------------------
E||------------------------------------------------------------------------
Guitar 2 - play verse behind solo
play chorus
play verse
Ending
Guitar 1
gonna do it right standin in the light......
e||-5-5-5-5--7---7-7-7-7---7---7--7--7--7---5----5--5--5--5---5--5--5---7--
b||-x-x-x-x--x---x-x-x-x---x---x--x--x--x---x----x--x--x--x---x--x--x---x--
g||-2-2-2-2--4---4-4-4-4---4---4--4--4--4---2----2--2--2--2---2--2--2---4--
D||------------------------------------------------------------------------
A||------------------------------------------------------------------------
E||------------------------------------------------------------------------
e||--7---7--7--7---7-----7--7--7--7---5----5--5--5--5--9-----10---9--------
b||--x---x--x--x---x-----x--x--x--x---x----x--x--x--x--x------x---x--------
g||--4---4--4--4---4-----4--4--4--4---2----2--2--2--2--6------7---6--------
D||------------------------------------------------------------------------
A||------------------------------------------------------------------------
E||------------------------------------------------------------------------
Guitar 2
A||----------------------------------------------------------------
D||----------------------------------------------------------------
G||---------------------------------------------------------------- 2x
B||--2--2--2---2---2--2--2----2----2---5-5-5-5-5-5-5-5-------------
e||--0--0--0---0---0--2--2----2----2---5-5-5-5-5-5-5-5-------------




Ваше мнение



Капча