Getchoo
as performed by Weezer
Words and Music by Rivers Cuomo
4/4 Time
All strings tuned down one half step
(All chords relative to standard tuning)
Intro
A5 E5
eb||-------|-------------------------|-------------------------|
Bb||-0///////10~~~~~~~~~~~~~~~~10//////17~~~~~~~~~~~~~~//13|
F#||-------|-------------------------|-------------------------|
C#||-------|-------------------------|-------------------------|
Ab||-------|-------------------------|-------------------------|
Eb||-------|-------------------------|-------------------------|
///////////////////////////////////////////////////////////////
eb||-------|-------------------------|-------------------------|
Bb||-------|-------------------------|-------------------------|
F#||-------|-------------------------|-------------------------|
C#||-------|-------------------7///////14~~~~~~~~~~~~~~~~14|
Ab||-0//////12~~~~~~~~~~~~~~~~~------|-------------------------|
Eb||-------|-------------------------|-------------------------|
///////////////////////////////////////////////////////////////
eb||-------|-0--0--0--0--0--0--0--0--|-0--0--0--0--0--0--0--0--|
Bb||-------|-x--x--x--x--x--x--x--x--|-0--0--0--0--0--0--0--0--|
F#||-------|-2--2--2--2--2--2--2--2--|-x--x--x--x--x--x--x--x--|
C#||-------|-2--2--2--2--2--2--2--2--|-2--2--2--2--2--2--2--2--|
Ab||-------|-0--0--0--0--0--0--0--0--|-2--2--2--2--2--2--2--2--|
Eb||-------|-------------------------|-0--0--0--0--0--0--0--0--|
(Play directly above pattern every intro)^^
A5 E5
eb|-------------------------|-------------------------|
Bb|10----------------10//////17~~~~~~~~~~~~~~~~17|
F#|-------------------------|-------------------------|
C#|-------------------------|-------------------------|
Ab|-------------------------|-------------------------|
Eb|-------------------------|-------------------------|
//////////////////////////////////////////////////////
eb|-------------------------|-------------------------|
Bb|-------------------------|-------------------------|
F#|-------------------------|-------------------------|
C#|7-----------------7///////14~~~~~~~~~~~~~~~~14|
Ab|-------------------------|-------------------------|
Eb|-------------------------|-------------------------|

Verse
A5 E5
eb|-------------------------|-------------------------|
Bb|10----------------------|-------------------------|
F#|-------------------------|-------------------------|
C#|-------------------------|-------------------------|
Ab|-------------------------|-------------------------|
Eb|-------------------------|-------------------------|
//////////////////////////////////////////////////////
eb|-------------------------|-------------------------|
Bb|-------------------------|-------------------------|
F#|-------------------------|-------------------------|
C#|7-----------------------|-------------------------|
Ab|-------------------------|-------------------------|
Eb|-------------------------|-------------------------|
//////////////////////////////////////////////////////
eb|-5--5--5--5--5--5--5--5--|-0--0--0--0--0--0--0--0--|
Bb|-5--5--5--5--5--5--5--5--|-0--0--0--0--0--0--0--0--|
F#|-2--2--2--2--2--2--2--2--|-x--x--x--x--x--x--x--x--|
C#|-2--2--2--2--2--2--2--2--|-2--2--2--2--2--2--2--2--|
Ab|-0--0--0--0--0--0--0--0--|-2--2--2--2--2--2--2--2--|




Ваше мнение



Капча