Weezer - Falling For You
Submitted By: Jason Lee
EMail: [email protected]
album: Pinkerton
Gb :------------------------|------------------------|
Db :------------------------|------------------------|
Ab :------------------------|------------------------|
Eb :------------------------|------------------------|
Gb :------------------------|------------------------|
Db :------------------------|------------------------|
Ab :-------------7----------|-6-----------4----------|
Eb :------------------------|------------------------|
Gb :------------------------|---------------------------|
Db :------------------------|---------------------------|
Ab :-2-----------0----------|-2-------------------------|
Eb :------------------------|-------------4-------------|
Gb :-----------------|----------------|----------------|----------------|
Db :-----------------|----------------|----------------|----------------|
Ab :-----------------|4-4-4-4-4-4-4-4-|----------------|2-2-2-2-2-2-2-2-|
Eb :-----------4-4-4-|----------------|2-2-2-2-2-2-2-2-|----------------|
Gb :----------------|------------------|------------------|
Db :----------------|------------------|------------------|
Ab :*---------------|-4-4-4-4-4-4--4-4-|-0-0-0-0-0-0--0-0-|
Eb :4-4-4-4--*0-0-0-|------------------|------------------|
Gb :------------------|----------------|------------------|
Db :------------------|----------------|------------------|
Ab :-2-2-2-2-2-2--2-2-|----------------|-4-4-4-4-4-4--4-4-|
Eb :------------------|0-0-0-0-0-0-0-0-|------------------|
Gb :------------------|------------------|-----------------|
Db :------------------|------------------|-----------------|
Ab :------------------|-2-2-2-2-2-2--2-2-|-*---------------|
Eb :-2-2-2-2-2-2--2-2-|------------------|-4-4-4-4-4*0-0-0-|
Gb :----------------|----------------|------------------------|--------|
Db :----------------|----------------|------------------------|--------|
Ab :4-4-4-4-4-4-4-4-|9-9-9-9-9-9-9-9-|11--*-------------------|--------|
Eb :----------------|----------------|------------------------|--4-4-4-|
Gb :----------------|----------------|----------------|----------------|
Db :----------------|----------------|----------------|----------------|
Ab :----------2-2-2-|----------------|2-2-2-2-5-------|3-3-3-3-*-------|
Eb :5---5-5-*-------|0---0-0-*-0-0-0-|------------3---|----------4-4-4-|
Gb :----------------|----------------|----------------|----------------|
Db :----------------|----------------|----------------|----------------|
Ab :----------2-2-2-|----------------|2-2-2-2-*-2-2-2-|--------5-5-5-5-|
Eb :5---5-5---------|0---0-0-*-0-0-0-|----------------|0---0-0---------|
Gb :----------------|----------------|----------------|----------------|
Db :----------------|----------------|----------------|----------------|
Ab :----------------|5---5-5-4---4-4-|2---2-2-0---0-0-|----------------|
Eb :3-3-3-3-5-5-5-5-|----------------|----------------|4---4-4-5---5-5-|
Gb :------------------|----------------|----------------|
Db :------------------|----------------|----------------|
Ab :------------------|4-4-4-4-4-4-4-4-|----------------|
Eb :2---2-2-4---4---4-|----------------|2-2-2-2-2-2-2-2-|
Gb :------------------|------------------|----------------|
Db :------------------|------------------|----------------|
Ab :-0-0-0-0-0-0--0-0-|-2-2-2-2-2-2--2-2-|----------------|
Eb :------------------|------------------|0-0-0-0-0-0-0-0-|
Gb :------------------|------------------|-----------------|
Db :------------------|------------------|-----------------|
Ab :-4-4-4-4-4-4--4-4-|------------------|-2-2-2-2-2-2-2-2-|
Eb :------------------|-2-2-2-2--2-2-2-2-|-----------------|
Gb :----------------|----------------|----------------|
Db :----------------|----------------|----------------|
Ab :*---------------|4-4-4-4-4-4-4-4-|9-9-9-9-9-9-9-9-|
Eb :4-4-4-4-4*0-0-0-|----------------|----------------|
Gb :------------------------|--------|----------------|----------------|
Db :------------------------|--------|----------------|----------------|
Ab :11*---------------------|--------|----------2-2-2-|----------------|
Eb :------------------------|--4-4-4-|5---5-5-*-------|0---0-0-*-0-0-0-|
Gb :----------------|----------------|----------------|----------------|
Db :----------------|----------------|----------------|----------------|
Ab :2-2-2-2-5-------|3-3-3-3-*-------|----------2-2-2-|----------------|
Eb :------------3---|----------4-4-4-|5---5-5---------|0---0-0-*-0-0-0-|
Gb :----------------|----------------|----------------|----------------|
Db :----------------|----------------|----------------|----------------|
Ab :2-2-2-2-*-2-2-2-|--------5-5-5-5-|----------------|5---5-5-4---4-4-|
Eb :----------------|0---0-0---------|3-3-3-3-5-5-5-5-|----------------|
Gb :----------------|----------------|-------------------|
Db :----------------|----------------|-------------------|
Ab :2---2-2-0---0-0-|----------------|--------2---2---2--|
Eb :----------------|4---4-4-5---5-5-|2---2-2------------|
Gb :-------------------|------------------|----------------------|
Db :-------------------|------------------|----------------------|
Ab :-----------0---0-0-|------------------|----------------------|
Eb :-0----0--0---------|-3---3-3--2---2-2-|-0---0--0--0--0--0--0-|
Gb :---------------------|----------------------|---------------------|
Db :---------------------|----------------------|---------------------|
Ab :-3---3--3--5----5--5-|----------------------|---------------------|
Eb :---------------------|3---3-3--3--3--3--3---|-3---3-3--2-----2--2-|
Gb :---------------------|----------------------|-----------------|
Db :---------------------|----------------------|-----------------|
Ab :---------------------|-2---2--2--5--5--5--5-|-----------------|
Eb :-0---0-0--0--0--0--0-|----------------------|-0---0-0-0-0-0-0-|
Gb :-----------------|----------------|-----------------|
Db :-----------------|----------------|-----------------|
Ab :-0---0-0-0-0-0-0-|5---5-5-5-5-5-5-|-2---2-2-*-------|
Eb :-----------------|----------------|-----------3-3-3-|
Gb :-----------------|-----------------|----------------|
Db :-----------------|-----------------|----------------|
Ab :-----------------|-0---0-0-0-0-0-0-|5---5-5-5-5-5-5-|
Eb :-0---0-0-0-0-0-0-|-----------------|----------------|
Gb :----------------|----------------|-----------------|
Db :----------------|----------------|-----------------|
Ab :2---2-2-2-2-2-2-|----------------|-0---0-0-0-0-0-0-|
Eb :----------------|0---0-0-0-0-0-0-|-----------------|
Gb :-----------------|----------------|----------------|----------------|
Db :-----------------|----------------|----------------|----------------|
Ab :-5---5-5-5-5-3-3-|2---2-2-*-------|----------------|0-0-0-0-0-0-0-0-|
Eb :-----------------|----------3-3-3-|0---0-0-0-0-0-0-|----------------|
Gb :----------------|--------|----------------|----------------|
Db :----------------|--------|----------------|----------------|
Ab :2-*-------------|--2-2-2-|3---3-3-*-5-5-5-|----------------|
Eb :----------------|--------|----------------|3---3-3-*-3-3-3-|
Gb :-----------------|----------------|----------------|----------------|
Db :---------3-------|----------------|----------------|----------------|
Ab :5-5-5-5----------|6-6-6-6-*-2-2-2-|3---3-3-*-5-5-5-|----------------|
Eb :-------------6---|----------------|----------------|3---3-3-*-3-3-3-|
Gb :----------------|----------------|----------------|----------------|
Db :----------------|----------------|----------------|----------------|
Ab :5-5-5-5-*-5-5-5-|--------3---3-3-|--------6---6-6-|--------3---3-3-|
Eb :----------------|3---3-3---------|6---6-6---------|3---3-3---------|
Gb :----------------|----------------|
Db :----------------|----------------|
Ab :--------6---6-6-|----------------|
Eb :6---6-6---------|3---------------|
submitted 10/29/02 by =bert=
actually tabbed by Evil Adam ([email protected])
arranged for bass by Chase Bunton ([email protected])




Ваше мнение



Капча