All of the tabs I've seen are close, but not it. I'm sure that this is 100%
correct. I've even tabbed the solo, which took way too long to get right.
Key:
pm = palm mute
/ = slide
h = hammer on
p = pull off
b = bend
Intro
E----------------------------------------------------------------
B----------------------------------------------------------------
G--------------2---------------------------2---------------------
D-4-4-4--------2---2-2-2--3----4-4-4-------2---2-2-2-2--3--------
A-4-4-4---0h2--0---2-2-2--3----4-4-4--0h2--0---2-2-2-2--3--------
E-2-2-2------------0-0-0--1----2-2-2-----------0-0-0-0--1--------
--pm- --pm- --pm- --pm---
Verses
E----------------------------------------------------------------
B----------------------------------------------------------------
G----------------------------------------------------------------
D-4--4-------7--7-------2--2-------4--4--------------------------
A-4--4-------7--7-------2--2-------4--4--------------------------
E-2--2-------5--5-------0--0-------2--2--------------------------
Chorus
E--------------------------------------------------------------------------
B--------------------------------------------------------------------------
G--7-7-7-7-7-7-7-7---------------------6-6-6-6-6-6-6-6---------------------
D--7-7-7-7-7-7-7-7---7-7-7-7-7-7-7-7---6-6-6-6-6-6-6-6---4-4-4-4-4-4-4-4---
A--5-5-5-5-5-5-5-5---7-7-7-7-7-7-7-7---4-4-4-4-4-4-4-4---4-4-4-4-4-4-4-4---
E--------------------5-5-5-5-5-5-5-5---------------------2-2-2-2-2-2-2-2---
Bridge
E-----------------------------------------------------------
B-----------------------------------------------------------
G------------------------------------------------7-7-7------
D-4-4-4-4--4-4-4-2--7-7-7-(2)--4-4-4-4--4-4-4-2--7-7-7------
A-4-4-4-4--4-4-4-2--7-7-7-(2)--4-4-4-4--4-4-4-2--5-5-5------
E-0h2-2-2--0h2-2-0--5-5-5-(0)--0h2-2-2--0h2-2-0-------------
Guitar 1 plays intro while guitar 2 plays solo
Solo (timing is not shown so listen when to play notes)
E-2 / 14--14-12----12--------------------------------------------14-12---16b--16-14---
B---------------14----14-12-10------12-10-10------12-10---10--12b------14-----------16
G------------------------------11-9----------11-9-------9-----------------------------
D-------------------------------------------------------------------------------------
A-------------------------------------------------------------------------------------
E-------------------------------------------------------------------------------------
E-16-14--------14---14---14-17-14----14---14---14----12---12---12---16---16---16-16b^-
B-------16--17b--17b--17b---------17b--17b--17b---15b--15b--15b--19b--19b--19b--------
G-------------------------------------------------------------------------------------
D-------------------------------------------------------------------------------------
A-------------------------------------------------------------------------------------
E-------------------------------------------------------------------------------------
Ending:
E---------------------------------------------------------
B---------------------------------------------------------
G--------------2------------------------------------------
D--4-4-4-------2--2-2---3---2-2---3---2-2--3--2-2---------
A--4-4-4--0h2--0--2-2---3---2-2---3---2-2--3--2-2---------
E--2-2-2----------0-0---1---0-0---1---0-0--1--0-0---------
--pm- -pm- -pm- -pm-
Song Structure:
Intro
Verse
Chorus
Verse
Chorus
Bridge
Solo
Chorus
Bridge
Ending
Comments to [email protected]




Ваше мнение



Капча