This song is played EADGBE and is pretty basic except for the solo. It is from the new
cd Maladroit. The solo is tough and oplayed fast but i think that this one is correct.
Intro
E----------------------------------
B----------------------------------
G------8------8------8-------------
D-8-88x8-8-88x8-8-88x8-8-88x3------
A-8-88x6-8-88x6-8-88x6-8-88x3------
E-6-66x--6-66x--6-66x--6-66x1------
Verse 1
E----------------------------------
B----------------------------------
G----------------------------------
D------8------8------8-------------
A-8-88-6-8-88-6-3-33-6-8-88-3------
E-6-66---6-66---1-11---6-66-1------
--------------P.M.----------------
Dead, On My Head...
Chorus 1
E-------------------------------------------------------
B-------------------------------------------------------
G-------------------------------------------------------
D-3-88-3333333-3-88-3333333-3-88-3333333-3-88-3333333---
A-3-88-3333333-3-88-3333333-3-88-3333333-3-88-3333333---
E-1-66-1111111-1-66-1111111-1-66-1111111-1-66-1111111---
E----------------------------------
B----------------------------------
G------8------8------8-------------
D-8-88x8-8-88x8-8-88x8-8-88x3------
A-8-88x6-8-88x6-8-88x6-8-88x3------
E-6-66x--6-66x--6-66x--6-66x1------
Verse 2
E----------------------------------
B----------------------------------
G----------------------------------
D------8------8------8-------------
A-8-88-6-8-88-6-3-33-6-8-88-3------
E-6-66---6-66---1-11---6-66-1------
--------------P.M.----------------
Cheese Smells so good...
Chorus 2
E-------------------------------------------------------
B-------------------------------------------------------
G-------------------------------------------------------
D-3-88-3333333-3-88-3333333-3-88-3333333-3-88-3333333---
A-3-88-3333333-3-88-3333333-3-88-3333333-3-88-3333333---
E-1-66-1111111-1-66-1111111-1-66-1111111-1-66-1111111---
E----------------------------------
B----------------------------------
G------8------8------8-------------
D-8-88x8-8-88x8-8-88x8-8-88x3------
A-8-88x6-8-88x6-8-88x6-8-88x3------
E-6-66x--6-66x--6-66x--6-66x1------
Solo
E-6-4-3-4--------------------------------------
B------6-6-4b---4-----------------9------------
G------------4-6-6-4-6---4-6s9-11-11-9b9b8b8b--
D---------------------4-6----------------------
A----------------------------------------------
E----------------------------------------------
E--------------------------------------
B-16-15-15-13-13--17-16-16-14-14--17-16
G-16-15-15-13-13--17-16-16-14-14--17-16
D--------------------------------------
A--------------------------------------
E--------------------------------------

E-18p15-17p15-18p15-17p15-18p15-17p15-18p15-17p15b-18b12b12b
B-----------------------------------------------------------
G-----------------------------------------------------------
D-----------------------------------------------------------
A-----------------------------------------------------------
E-----------------------------------------------------------
Chorus 3
E-------------------------------------------------------
B-------------------------------------------------------
G-------------------------------------------------------
D-3-88-3333333-3-88-3333333-3-88-3333333-3-88-3333333---
A-3-88-3333333-3-88-3333333-3-88-3333333-3-88-3333333---
E-1-66-1111111-1-66-1111111-1-66-1111111-1-66-1111111---
Outro

E-------------------------------------
B-------------------------------------
G------8------8------8----------------
D-8-88x8-8-88x8-8-88x8-8-3-8-3-8-3-8-3
A-8-88x6-8-88x6-8-88x6-8-3-8-3-8-3-8-3
E-6-66x--6-66x--6-66x--6-1-6-1-6-1-6-1




Ваше мнение



Капча