tab by zetec
Ths is my first tab and I hope it is right, if not give a comment or email
me at [email protected]
1. Don't Let Go
D5 - x577xx
G5 - 355xxx
F#5 - 244xxx
B5 - x244xx
E5 - 022xxx
A5 - x022xx

D5 G5
Ooh whoa oh whoa
E|-10-10-10-10-10-10-10-10-10-10-10-10-10-10-10-10-10-10-10-10-10-10-10-10--
B|--------------------------------------------------------------------------
G|-7--7--7--7--7--7--7--7--7--7--7--7--7--7--7--7--7--7--7--7--7--7--7--7---
D|--------------------------------------------------------------------------
A|--------------------------------------------------------------------------
E|--------------------------------------------------------------------------
E|-10-10-10-10-10-10-10-10--
B|--------------------------
G|-7--7--7--7--7--7--7--7---
D|--------------------------
A|--------------------------
E|--------------------------

D5 G5
Any time that you want I'll be here in your arms
D5 G5
Silently holding on to the girl with the charms
F#5 B5 E5 A5
But if there comes a day you should turn your heart away
F#5 B5 E5 A5
I'll be down on my knees begging for that girl to stay
D5 G5
Don't let go, Ooh oh whoa
D5 G5
Don't let go, Ooh oh whoa
D5 G5
Anything you desire, I will set at your feet
D5 G5
With a kiss in the air for the gods to receive
F#5 B5 E5 A5
But if there comes a day you should turn your heart away
F#5 B% E5 A5
I'll be down on my knees begging for that girl to stay
Bridge:
F#5 B5
Confrontations in my mind
E|--------------------------------------------------------
B|--------------------------------------------------------
G|-----------------------------7-7-7-7-6-6-6-6-4-4-4-4-7--
D|--------------------------------------------------------
A|-----------------------------5-5-5-5-4-4-4-4-2-2-2-2-5--
E|--------------------------------------------------------
G5 C5
Got me running out of time
E|--------------------------------------------
B|--------------------------------------------
G|------------------------------9-9-9-9-9/11--
D|--------------------------------------------
A|------------------------------7-7-7-7-7/-9--
E|--------------------------------------------
D5 G5
Don't let go, Ooh oh whoa
D5 G5
Don't let go, Ooh oh whoa
Solo:
D5 A5
E|-----------------------------------------
B|-----------------------------------------
G|-----------------------------------------
D|--4--5--7----7-7--7----7/9--5----5-5--5--
A|-----------------------------------------
E|-----------------------------------------

F#5 B5 E5 A5
But if there comes a day you should turn your heart away
F#5 B5 E5 A5
I'll be down on my knees begging for that girl to stay
F#5 B5
Confrontations in my mind
G5 C5
Got me running out of time
D5 G5
Don't let go, Ooh oh whoa
D5 G5
Don't let go, Ooh oh whoa
D5 G5
Don't let go, Ooh oh whoa
D5 G5
Don't let go, Ooh oh whoa




Ваше мнение



Капча