Artist:Weezer
Song Crab
Album: Weezer
Tuning: (Standard) EADGBE
Tempo: 114 (Moderate Rock)
Intro:
E|------------------------------------------------------------------
G|------------------------------------------------------------------
B|-5-----5-----5--5----4-----4---------7-----7-----7--7-----5--5----
D|------------------------------------------------------------------
A|------------------------------------------------------------------
D|------------------------------------------------------------------
E|--------------------------------------------------
B|--------------------------------------------------
G|-5-----5-----5--5-----5-----5-----5-----7-----4---
D|-7-----7-----7--7-----7-----7-----7-----9-----6---
A|--------------------------------------------------
D|--------------------------------------------------
E|-----------------------------------------------------------------------
B|-----------------------------------------------------------------------
G|1010101010101010-7-7-7-7-7-7-7-7-9-9-9-9-9-9-9-9-----------------------
D|1010101010101010-7-7-7-7-7-7-7-7-9-9-9-9-9-9-9-9-------------5--6--7---
A|-8-8-8-8-8-8-8-8-5-5-5-5-5-5-5-5-7-7-7-7-7-7-7-7----5--6--7-----------0
D|-8-8-8-8-8-8-8-8-5-5-5-5-5-5-5-5-0-0-0-0-0-0-0-0-----------------------
Verse:
A5 F5 D5 E5 F5
Crab if you want her, she won't be coming down (down)
C5 F5 E5
Down (down), down (down), down (down)
F5 C5 F5 G5 C5
Crab if you want her, she won't be coming down
A5 F5 D5 E5 F5
Crab if you need it, she put her knickers on (on)
C5 F5 E5
On (on), on (on), on (on)
F5 C5 F5 G5 C5
Crab if you need it, she put her knickers on
Chorus:
C5 E5 D5 A5
She said she's feeling lonely, and I say that's Okay
F5 D5 E5
She won't be coming back 'round here, no way
Solo:
E|--------------------------------------------------------------
B|-------------------------------------------------------------
G|--5------------5-------------------------/9--(9)--7h9h7------
D|------7---5-7------7---5-7--7--5h7h5---------------------10--
A|--------7------------7----------------8----------------------
D|-------------------------------------------------------------

E|---------------------------------------------------------------------------
B|---------------------------------------------------------------------------
G|-------------------/9-----(9)-----9-----(9)---7h9-7--9--/12-----7--9--7--5-
D|-/7---5-------------------------------~~-~~~~------------------------------
A|---------8-----8-----------------------------------------------------------
D|---------------------------------------------------------------------------
E|---------8--8
B|-------------
G|-------------
D|--5----------
A|-------------
E|-------------
Chorus:
C5 E5 D5 A5
She said she's feeling lonely, and I say that's Okay
F5 D5 E5
She won't be coming back 'round here, no way
Verse:
A5 F5 D5 E5 F5
Crab at the booty, 'taint gonna do no good (good)
C5 F5 E5
Good (good), good (good), good (good)
F5 C5 F5 G5 C5
Crab at the booty, 'taint gonna do no good
F5 C5 F5 G5 C5
No, crab at the booty, 'taint gonna do no good




Ваше мнение



Капча