By: KrazyKurtKuomos

Im not sure that this is weezer. I downloaded it and it kinda sounds like Weezer without
or at least his vocals. This tab sounds exactly right and in the interlude u dont have
do the entire chord for it 2 sound right; u can just strum the G/D string if
thats easier. Even if this song isnt by Weezer i suggest u download cuz its a cool
little
tab and it
has like a beach boys sound to it. PM me if u have any questions or comments

CALIFORNIA
Tuned down half a step
Intro:
Guitar 1 clean
eb-----0-----0------4----4------5----5----0----0--|
Bb---------0------0----0------2----2---------0----| Repeat as needed
Gb---1---1-----------1-----------2------1--1------|
Db------------------------------------------------|
Ab-------------------------0----------------------|
Eb-0-----------4----------------------0-----------|

Guitar 2 w/ heavy distortion
E5 C#5 A5 E5
------------------------|
------------------------| Let each chord ring
------------------------|
--2---6--7--2-----------|
--2---6--7--2-----------|
--0---4--5--0-----------|

Verse/Chorus:
Guitar 1 & 2 w/ heavy distortion
----------------------------|
----------------------------|
----------------------------| Repeat as needed
-2-----6-----7-----2--------|
-2-x8--6-x8--7-x8--2-x8-----|
-0-----4-----5-----0--------|

Prechorus:
Guitar 1 w/ distortion
------------------------------------------------------------------|
-5-5-5-5-5-5-5-5-4-4-4-4-4-4-4-4-2-2-2-2-2-2-2-2-0-0-0-0-0-0-0-0--|
------------------------------------------------------------------|
------------------------------------------------------------------|
------------------------------------------------------------------|
------------------------------------------------------------------|

Guitar 2 w/ heavy distortion
----------------------------|
----------------------------|
----------------------------|
-2-----6-----7-----2--------|
-2-x8--6-x8--7-x8--2-x8-----|
-0-----4-----5-----0--------|

Interlude: This part is kind of confusing
Guitar 2 w/ heavy distortion
------------------------------------------------------------------|
-5-5-5-5-5-5-5-5-5-7-7-7-7-7-7-7-7-9-9-9-9-9-9-9-7-7-7-7-7-7-7-7--|
-x-x-x-x-x-x-x-x-x-x-x-x-x-x-x-x-x-x-x-x-x-x-x-x-x-x-x-x-x-x-x-x--|
-2-2-2-2-2-2-2-2-2-4-4-4-4-4-4-4-4-6-6-6-6-6-6-6-4-4-4-4-4-4-4-4--|
------------------------------------------------------------------|
------------------------------------------------------------------|
Repeat ^ twice then:

-7-7-7-7-7-7-7-7-9-9-9-9-9-9-9-9-11-11-11-11-11-11-11-11---|
-x-x-x-x-x-x-x-x-x-x-x-x-x-x-x-x-x--x--x--x--x--x--x--x----|
-4-4-4-4-4-4-4-4-6-6-6-6-6-6-6-6-6--8--8--8--8--8--8--8----|
-----------------------------------------------------------|
-----------------------------------------------------------|
-----------------------------------------------------------|

-9-9-9-9-9-9-9-9-12-12-12-12-12-12-12-12---| Hold and then bend w/
-x-x-x-x-x-x-x-x--x--x--x--x--x--x--x--x---| feedback (improvise)
-6-6-6-6-6-6-6-6--9--9--9--9--9--9--9—-9---|
-------------------------------------------|
-------------------------------------------|
-------------------------------------------|

-12-11-9-7-5-4-0----------| Strum as many times as needed
--x--x-x-x-x-x-x----------|
--9--8-6-4-2-1-2----------|
--------------------------|
--------------------------|
--------------------------|

-0-4-5-7-9-11-12b---| Bend and hold last note
-x-x-x-x-x--x--x----|
-2-1-2-4-6--8--9b---|
--------------------|
--------------------|
--------------------|

Outro:
Guitar 1 clean
eb-----0-----0------4----4------5----5----0----0--|
Bb---------0------0----0------2----2---------0----| Repeat as needed
Gb---1---1-----------1-----------2------1--1------|
Db------------------------------------------------|
Ab-------------------------0----------------------|
Eb-0-----------4----------------------0-----------|




Ваше мнение



Капча