Weezer - Burndt Jamb

D=Down Stroke
U= Up Stroke
H=Hammer
S=Shake
B=Bend

REGULAR TUNING PLAYED CLEANLY

Intro
D U D U D D U D U D U D U D U D D U D U D U
4-4-4-4-4-4-4-2-2-2-2-5-5-5-5-5-5-5-4-4-4-4
2-2-2-2-2-2-2-2-2-2-2-3-3-3-3-3-3-3-3-3-3-3
-------------------------------------------
-------------------------------------------X2
-------------------------------------------
-------------------------------------------

ALSO PLAYED CLEANLY
MAIN RIFF
Amaj7 Bmin7
D D U D D U U D U D U D D U D D U U D U D U
-------------------------------------------
-------------------------------------------
6-6-6-6-6-6-6-6-6-6-6-7-7-7-7-7-7-7-7-7-7-7 X2
6-6-6-6-6-6-6-6-6-6-6-7-7-7-7-7-7-7-7-7-7-7
X-X-X-X-X-X-X-X-X-X-X-X-X-X-X-X-X-X-X-X-X-X
5-5-5-5-5-5-5-5-5-5-5-7-7-7-7-7-7-7-7-7-7-7

C#min7 Dmaj7
D D U D D U U D U D U D D U D D U U D U D U
------------------------------------------------------
------------------------------------------------------
9-9-9-9-9-9-9-9-9-9-9-11-11-11-11-11-11-11-11-11-11-11
9-9-9-9-9-9-9-9-9-9-9-11-11-11-11-11-11-11-11-11-11-11
X-X-X-X-X-X-X-X-X-X-X--X--X--X--X--X--X--X--X--X--X--X
9-9-9-9-9-9-9-9-9-9-9-10-10-10-10-10-10-10-10-10-10-10

Bmin7 E
D D U D D U U D U D U D D D
----------------------0-0-0
----------------------0-0-0
7-7-7-7-7-7-7-7-7-7-7-1-1-1
7-7-7-7-7-7-7-7-7-7-7-2-2-2
X-X-X-X-X-X-X-X-X-X-X-2-2-2
7-7-7-7-7-7-7-7-7-7-7-0-0-0

D U D U D D U D U D U D U D U D D U D U D U
4-4-4-4-4-4-4-2-2-2-2-5-5-5-5-5-5-5-4-4-4-4
2-2-2-2-2-2-2-2-2-2-2-3-3-3-3-3-3-3-3-3-3-3
-------------------------------------------
-------------------------------------------
-------------------------------------------
-------------------------------------------

Amaj7 Bmin7
D D U D D U U D U D U D D U D D U U D U D U
-------------------------------------------
-------------------------------------------
6-6-6-6-6-6-6-6-6-6-6-7-7-7-7-7-7-7-7-7-7-7 X2
6-6-6-6-6-6-6-6-6-6-6-7-7-7-7-7-7-7-7-7-7-7
X-X-X-X-X-X-X-X-X-X-X-X-X-X-X-X-X-X-X-X-X-X
5-5-5-5-5-5-5-5-5-5-5-7-7-7-7-7-7-7-7-7-7-7

C#min7 Dmaj7
D D U D D U U D U D U D D U D D U U D U D U
------------------------------------------------------
------------------------------------------------------
9-9-9-9-9-9-9-9-9-9-9-11-11-11-11-11-11-11-11-11-11-11
9-9-9-9-9-9-9-9-9-9-9-11-11-11-11-11-11-11-11-11-11-11
X-X-X-X-X-X-X-X-X-X-X--X--X--X--X--X--X--X--X--X--X--X
9-9-9-9-9-9-9-9-9-9-9-10-10-10-10-10-10-10-10-10-10-10

Bmin7 E
D D U D D U U D U D U D D D
----------------------0-0-0
----------------------0-0-0
7-7-7-7-7-7-7-7-7-7-7-1-1-1
7-7-7-7-7-7-7-7-7-7-7-2-2-2
X-X-X-X-X-X-X-X-X-X-X-2-2-2
7-7-7-7-7-7-7-7-7-7-7-0-0-0

Played with distortion
D D U D U U U U D U D D D U D U U U U D U D D D U D U U U U D U D
-----------------------------------------------------------------
-----------------------------------------------------------------
------------------5-7B------------------5-7B------------------5-7B
------7-7-5-7-5-7-----------7-7-5-7-5-7-----------7-7-5-7-5-7----
5-5-5-----------------1-1-1-----------------3-3-3----------------

D D U D U U U U D U D
---------------------
---------------------
------------------5-7
------7-7-5-7-5-7----
5-5-5----------------

D U D U D D U D U D U D U D U D D U D U D U
4-4-4-4-4-4-4-2-2-2-2-5-5-5-5-5-5-5-4-4-4-4
2-2-2-2-2-2-2-2-2-2-2-3-3-3-3-3-3-3-3-3-3-3
-------------------------------------------
-------------------------------------------
-------------------------------------------
-------------------------------------------

Solo
Also with Distortion
D U D U D U D U D H D D H
12-12-12-12-12-12-12-12-12-14-12-12---
10-10-10-10-10-10-10-10-12----12-12-14
--------------------------------------
--------------------------------------
--------------------------------------
--------------------------------------

D H D D D D U D D D D U D D D
12----12------------------------------
12-14-12----12-12----12-17-14-14----14
---------14-------14-------------16---
--------------------------------------
--------------------------------------
--------------------------------------

D D U D D DB DB
---------------16S--
19-15-15-14-15----15S
--------------------
--------------------
--------------------
--------------------

C#min7 Dmaj7
D D U D D U U D U D U D D U D D U U D U D U
------------------------------------------------------
------------------------------------------------------
9-9-9-9-9-9-9-9-9-9-9-11-11-11-11-11-11-11-11-11-11-11
9-9-9-9-9-9-9-9-9-9-9-11-11-11-11-11-11-11-11-11-11-11
X-X-X-X-X-X-X-X-X-X-X--X--X--X--X--X--X--X--X--X--X--X
9-9-9-9-9-9-9-9-9-9-9-10-10-10-10-10-10-10-10-10-10-10

Bmin7 E
D D U D D U U D U D U D D D
----------------------0-0-0
----------------------0-0-0
7-7-7-7-7-7-7-7-7-7-7-1-1-1
7-7-7-7-7-7-7-7-7-7-7-2-2-2
X-X-X-X-X-X-X-X-X-X-X-2-2-2
7-7-7-7-7-7-7-7-7-7-7-0-0-0

Played with distortion
D D U D U U U U D U D D D U D U U U U D U D D D U D U U U U D U D
-----------------------------------------------------------------
-----------------------------------------------------------------
------------------5-7B------------------5-7B------------------5-7B
------7-7-5-7-5-7-----------7-7-5-7-5-7-----------7-7-5-7-5-7----
5-5-5-----------------1-1-1-----------------3-3-3----------------

D D U D U U U U D U D
---------------------
---------------------
------------------5-7
------7-7-5-7-5-7----
5-5-5----------------

D U D U D D U D U D U D U D U D D U D U D U
4-4-4-4-4-4-4-2-2-2-2-5-5-5-5-5-5-5-4-4-4-4
2-2-2-2-2-2-2-2-2-2-2-3-3-3-3-3-3-3-3-3-3-3
-------------------------------------------
-------------------------------------------
-------------------------------------------
-------------------------------------------

Amaj7 Bmin7
D D U D D U U D U D U D D U D D U U D U D U
-------------------------------------------
-------------------------------------------
6-6-6-6-6-6-6-6-6-6-6-7-7-7-7-7-7-7-7-7-7-7 X5
6-6-6-6-6-6-6-6-6-6-6-7-7-7-7-7-7-7-7-7-7-7
X-X-X-X-X-X-X-X-X-X-X-X-X-X-X-X-X-X-X-X-X-X
5-5-5-5-5-5-5-5-5-5-5-7-7-7-7-7-7-7-7-7-7-7


Ваше мнение



Капча