===================
=== weezer ===
===================
=== burndt jamb ===
===================
=== solo ===
===================
Hey, it's me, Kurt Andersen again (guy who did Burndt
Jamb version number three). Here's a newer updated
version of the solo from my favorite song, Burndt Jamb.
Have fun, and E N J O Y ! ! ! ! !
/= slide up or down
h= hammer on
p= pull off
-Here We Go-
e--------------------------------------------------------12-------------14------
B--------------------------14-14----------------------------14-14p12-14----15---
G--2-----2--14/16-16-------------16-14-14-14-16-16p14-16------------------------
D------2-------------14-14------------------------------------------------------
A-------------------------------------------------------------------------------
E-------------------------------------------------------------------------------
e-----------16-12-16p12--
B--15p14-15--------------
G------------------------
D------------------------
A------------------------
E------------------------
And that is that. Not too hard (at least i would hope not).
Q U E S T I O N S ? ? ? ? ?
E-mail me at [email protected]




Ваше мнение



Капча