I hope you like it... It's my first tab and I'm french,
so suggestions and commentaries are welcome...
Tabbed by Jonathan Grondin =>[email protected]
--------------------------------------------------
Am ------0------- E -------0------ C ------0-------
------1------- -------0------ ------1-------
------2------- -------1------ ------0-------
------2------- -------2------ ------2-------
------0------- -------2------ ------3-------
------x------- -------0------ ------x-------

F ------1------- G -------3------
------1------- -------0------
------2------- -------0------
------3------- -------0------
------x------- -------2------
------x------- -------3------
Intro :
Am, E, C, F, G
------------------
Verse : ( Am, E, C, F, G)
Am
Oh baby, baby
E C
How was I supposed to know
F G
That something wasn't right here
Am
Oh baby, baby
E C
I shouldn't have let you go
F G
And now you're out of sight, yeah
Am E
Show me how want it to be
C F G
Tell me baby 'cause I need to know now, oh because
Chorus:
Am E
My loneliness is killing me
C F G
I must confess I still believe
Am E
When I'm not with you I lose my mind
C
Give me a sign
F G
Hit me baby one more time
****Same thing throughout the song...

Verse :
Oh baby, baby
The reason I breathe is you
Boy you got me blinded
Oh pretty baby
There's nothing that I wouldn't do
It's not the way I planned it
Show me how you want it to be
Tell me baby 'cause I need to know now, oh because
Chorus:
My loneliness is killing me
I must confess I still believe
When I'm not with you I lose my mind
Give me a sign
Hit me baby one more time
Verse :
Oh baby, baby how was I supposed to know
Oh pretty baby, I shouldn't have let you go
I must confess, that my loneliness is killing me now
Don't you know I still believe
That you will be here
And give me a sign
Hit me baby one more time
Chorus :
My loneliness is killing me
I must confess I still believe
When I'm not with you I lose my mind
Give me a sign
Hit me baby one more time




Ваше мнение



Капча