|-------------------------------------------------------------|
|-------------555-666-7---------------------------------------|
|-333-444-5---555-666-7---------------------------------------|
|-333-444-5---333-444-5---------------------------------------|
|-111-222-3---------------------------------------------------|

|-------------------------------------------------------------|
|-------------555-666-7---------------------------------------|
|-333-444-5---555-666-7---------------------------------------|
|-333-444-5---333-444-5---------------------------------------|
|-111-222-3---------------------------------------------------|

|-------------------------------------------------------------|
|-------------555-666-7---------------------------------------|
|-333-444-5---555-666-7---------------------------------------|
|-333-444-5---333-444-5---------------------------------------|
|-111-222-3---------------------------------------------------|

yes. this is my first tab.




Ваше мнение



Капча