#------------Created with Taborama Tab Creator-----------------#
#------------------------------------------------------------------------------#
Title: American Gigalo
Artist: Weezer
Album: Maladroit
Instrument: Guitar
Tabbed by: Chris ([email protected])
Tuning: Standard (E A D G B E)Intro/Verse(x4):
E|------------------------------------||
B|------------------------------------||
G|--------------5-5-5--6--7-----------||
D|-3-3-3--4--5--5-5-5--6--7-----------||
A|-3-3-3--4--5--3-3-3--4--5-----------||
E|-1-1-1--2--3------------------------||
E|--5--------||
B|----------------|| This fill is only used in the first verse.
G|----------------|| It is played right after the first verse and
D|----------------|| before the first prechorus.
A|----------------||
E|----------------||
Prechorus:
E|----------------||
B|----------------||
G|--7-------------||
D|--7-------------||
A|--5-------------||
E|----------------||
E|----------------||
B|--5b------------||
G|--5b------------|| Fill for the prechorus
D|----------------||
A|----------------||
E|----------------||
Chorus:
E|----------------||
B|----------------||
G|----------------||
D|-3--------------||
A|-3--------------||
E|-1--------------||
E|--/6--8--5------||
B|------------6---||
G|----------------|| Fill for the chorus
D|----------------||
A|----------------||
E|----------------||
Repeat Intro/Verse (x3)
Repeat Prechorus
Repeat Chorus
Breakdown:
E|------------------------------------------------||
B|------------------------------------------------||
G|------------------------------------------------||
D|-3-3-3-3--5-5-5-5-----------7-7-7-7-------------|| (x3)
A|-1-1-1-1--3-3-3-3--3-3-3-3--5-5-5-5-------------||
E|-------------------1-1-1-1----------------------||
then
E|------------------------||
B|------------------------||
G|------------------------||
D|-3-3-3-3--2-2-2-2-------||
A|-1-1-1-1--0-0-0-0-------||
E|------------------------||
Repeat Intro/Verse (x1)
Solo:
E|-----------------8-10--8h10h8-10--10-11-8-----10-8-8-----------||
B|-11-10-11--10-11---------------------------11--------11-10-----||
G|---------------------------------------------------------------||
D|---------------------------------------------------------------||
A|---------------------------------------------------------------||
E|---------------------------------------------------------------||
E|-13-10-13--10-15-13-11-10--13-11-10-8--11-10-8---------||
B|-----------------------------------------------11------||
G|-------------------------------------------------------||
D|-------------------------------------------------------||
A|-------------------------------------------------------||
E|-------------------------------------------------------||
Repeat Chorus
Repeat Breakdown
Repeat Intro/Verse (x3)
Outro:
E|---------------------------------||
B|---------------------------------||
G|-5-5-5--6--7---------------------||
D|-5-5-5--6--7---------------------|| (x2)
A|-3-3-3--4--5---------------------||
E|---------------------------------||
End with:
E|----------------||
B|----------------||
G|----------------||
D|-5--------------||
A|-5--------------||
E|-3--------------||




Ваше мнение



Капча