Artist: Weezer
Song: Always
Album: Green Album B-Side
Intro: The notes with stars are muted so you
can just drop them if you want)

E|-9-------10-9------------5--4--------------|
B|-10-12---10---12-10------5*-----7---9------|
G|-9-------9*---------9----4*-----7*---------|
D|--------------------------------7*---------|
A|-------------------------------------------|
E|-------------------------------------------|
Verse 1
A E D E
Always sing your love to me softly
A E D E
Sweetly turn the pages on always
Chorus:
C#m F#m
In the night I was born
Bm E
Lived a new summer morn
F#m D
Always, sing your love
C#m D Bm
Come to me
E A
'Cause I was destined to be
E|-9*------10-9------------5--4--------------|
B|-10-12---10---12-10------5*-----7---9------|
G|-9-------9*---------9----4*-----7*---------|
D|--------------------------------7*---------|
A|-------------------------------------------|
E|-------------------------------------------|
Verse 2
Always through the day that I loved you
Sweetness came on down from above you
Chorus:
In the night I was born
Lived a new summer morn
Always, sing your love
Come to me
'Cause I was destined to be
Bridge:
A
No control
F#m
In your arms
E
Letting go
F F#
I hope you cope
D A
With me tonight
E|-9*------10-9------------5--4--------------|
B|-10-12---10---12-10------5*-----7---9------|
G|-9-------9*---------9----4*-----7*---------|
D|--------------------------------7*---------|
A|-------------------------------------------|
E|-------------------------------------------|
(Violin)
Chorus:
In the night I was born
Lived a new summer morn
Always, sing your love
Come to me
'Cause I was destined to be
E|-9*------10-9------------5--4--------------|
B|-10-12---10---12-10------5*-----7---9------|
G|-9-------9*---------9----4*-----7*---------|
D|--------------------------------7*---------|
A|-------------------------------------------|
E|-------------------------------------------|
Please Rate and enjoy :-)
- WeezerGeek182




Ваше мнение



Капча