From: [email protected] (Sydb)
Subject: Tab-Ween-Sorry Charlie
Tab-Sorry Charlie-Ween
Transcribbled by Ken Gorski ([email protected])
The Verses are:
G C C D
G C C D (repeated untill...)
(these lyrics are very incorrect, just look/listen for the
chord changes)
D G
And now your standing at the station, try to think
C D
what I donХt got to give, oh and iХm so sorry charlie, I got
C D
my own life to live.
The next verse uses the same chord pattern, but at the end play:
D G C G C G C G C G C(and back to the top)
No you canХt stay
The solo:(from memory)
(? ? ? ?)
-----------15------------12-12-12-----15-----
-12-12-12-----15-12----------------------15--
---------------------------------------------
---------------------------------------------
---------------------------------------------
---------------------------------------------
-17--17-17-17-20-17-------------------------------
---------------------12-12-12-13-15---15-12-------
-------------------------------------------14-12--
--------------------------------------------------
---------------------------------------------
---------------------------------------------
---------------------------------------------
---------------------------------------------
------------12-----------9--9-9-12-9-7---------
-12---12-12----12--9---------------------------
---------------------------------------------
---------------------------------------------
---------------------------------------------
---------------------------------------------
-9--9-9----------------------------------------
---------12-12---10-10-9-10-12-10-9------------
-------------------------------------10-10-10-------
---------------------------------------------
---------------------------------------------
---------------------------------------------
---------------------------------------------
---------10--10-10--10---9--------------------
---------12--12-12--12--10---------------------
---------------------------------------------
(Repeat this a few times)




Ваше мнение



Капча