From: [email protected] (Chris Prine)
Subject: TAB: Roses Are Free by Ween
Roses Are Free by Ween
chorus
(start out with an A-shaped barre chord on the 8th fret to better
match the
octave)
don't believe the florist when he tells you that the roses are free
F G G# A A#
central lead thing
e-|------------------------------------------|
B-|------------------------------------------|
G-|------------------------------------------|
D-|-10b11-10-8--8----8h10-8----8h10-8-8------|
A-|---------------10--------10----------10---|
E-|------------------------------------------|
then you can add little things like this after...
e-|------------------------------------------|
B-|------------------------------------------|
G-|------------------------------------------|
D-|------8h10-8-------8h10-8-----------------|
A-|-8h10---------8h10------------------------|
E-|------------------------------------------|




Ваше мнение



Капча