From: Daniel Steinbock
HIV Song by WeeN
from Chocolate & Cheese
*REVISION*
The song has two main riffs with "AIDS" & "HIV" interspersed,
if you have the cd you'll know what I'm talkin about.

|--7-7----------7-6--4--2----2-3---3-2-2-2------------------
|-------4-7-4-7-----------------------------0-2--0-2-0-2(bu)
|----------------------------------------------------------- x4
|-----------------------------------------------------------
|-----------------------------------------------------------
|-----------------------------------------------------------
On this riff, bar the top 2 strings with first finger.
|-------------------
|-------------------
|------------------- x8
|-------------------
|----9-8-7---7-8-9--
|--7-------7--------

BONUS!
What Deaner Was Talkin' About solo, and kind of the main line riff
\=slide ~=vibrato
|--3\-5-7-5-7---3\-5-7\-10~~~---8--7-8--7~~~-- \-5\-3----
|--------------------------------------------- at----------
|--------------------------------------------- end----------
|--------------------------------------------- of----------
|---------------------------------------------song----------
|--------------------------------------------- ----------

When I posted this, there was only one WeeN tab on nevada. This must
change. I'll make a strong effort to post all the WeeN songs I know.
-may B00GNiSH have his way with you-
BaGBoY
[email protected]




Ваше мнение



Капча