From: Daniel Steinbock
Subject: /w/ween/common_bitch.tab
Common Bitch by WeeN
from GOD WeeN SATAN
The song is composed of lyrics sung over this main line riff
while the chorus is just chords. I didn't tab the solo.
E-|-----------------------------------------------------------------
B-|-----------------------------------------------------0-----------
G-|--------------------------------------2-2---0-2--2-2---2-0---0---
D-|----2---0---0-2----2------0---0-----------2----------------2---2-
A-|------2---2-----------0h2---0----0--0----------------------------
E-|-0--------------0------------------------------------------------
Common bitch! Ma head itch!
E-|-----------------------------------------------------------------
B-|-----------------------------------------------------0-----------
G-|--------------------------------------2-2---0-2--2-2---2-0---0---
D-|------2-2---0-2----2------0---0-----------2----------------2---2-
A-|----------2-----------0h2---0----0--0----------------------------
E-|-0--0-----------0------------------------------------------------
Scratchit bitch! Common bitch!
Chorus (power chords)
G A
Common bitch!
G A
Little girl!
Bridge
E-|-----------
B-|-----------
G-|-----------
D-|-----------
A-|-2-0-------
E-|-----3-2/3-
E-|-----------------------------------------------------------------
B-|-----------------------------------------------------0-----------
G-|--------------------------------------2-2---0-2--2-2---2-0---0---
D-|------2-2---0-2----2------0---0-----------2----------------2---2-
A-|----------2-----------0h2---0----0--0----------------------------
E-|-0--0-----------0------------------------------------------------
Additional lyrics:
Common bitch! Wear good stitch! Fetch it bitch! Common Bitch!
*chorus*
Common bitch! Papa's home! No shit! Common bitch!
*chorus*
*solo*

-may B00GNiSH have his way wi' you-
BaGBoY
[email protected]


Ваше мнение



Капча