From: [email protected] ([email protected])
Subject: "A Tear for Eddie"-Ween
O.k, If this looks messed up, set your font to courier and make the
size small.
Key: (bu)- bend up
(bd)- bend down (release)
(pb)- pre-bend and release
This from the new Ween album.
Please email or post corrections.
ТA Tear For EddieУ- By Ween
Transcribbled By [email protected]
--------------------------------------------------------------
-------------------------------------------------12/14\12-----
-----------9-11v----------9--11(bu)12(bd)11--9----11/13-\11---
----/11--------------/11--------------------------------------
--------------------------------------------------------------
--------------------------------------------------------------
Repeat above (and change it a bit)
(bend and pick this part)
-----------------------------------------------------------------------
------------9-10-7-------------------------------------12(bu)14(bd)12--
--------------------------9--11(bu)12-12-(bd)11------------------------
---------------------/11--------------------------11-------------------
-----------------------------------------------------------------------
--2-3-4----------------------------------------------------------------
Again, repeat the above and change it a bit.
--12-11-9--------------------------------------------------------------
-----------12-10-9-----------------------------------------------------
--------------------11-9-----------------------------------------------
---------------------------11-10-9-------------------------------------
------------------------------------11-10-9\7/9\7----------------------
-----------------------------------------------------------------------
Listen to the CD for the right pitches on this part.
(This is from memory, this part might need to be transposed up/down a
bit)
---14(bu)?-------?(pb)12-----------14(bu)?---12-------14--14(bu)?--12--
------------------------------14-----------------14--------------------
-----------------------------------------------------------------------
-----------------------------------------------------------------------
-----------------------------------------------------------------------
-----------------------------------------------------------------------
Then go back to begining. The fuzzed solo is the same key but more
free-style,
so i wonХt tab it.
ADDEDКBONUS!!
TWO Riffs From ТHIV SongУ
--7-7------------7--6--4-----------------------------------------------
-------4-7-4---7----------7-7/8-\7-------------------------------------
--------------------------------------4-6-4-6-4-6(bu)7-----------------
-----------------------------------------------------------------------
-----------------------------------------------------------------------
-----------------------------------------------------------------------
REPEATКAКFEWКTIMES,THEN:
---------------------------------------
---------------------------------------
---------------------------------------
--------------------------------------- ...repeat then above again...
-----9-8-7----2-------------9-8-7..etc.
---7------------2-3-4----7-------------




Ваше мнение



Капча