Date: Sun, 22 Dec 1996 20:36:18 -0500
From: Maverick
Subject: Guitar Tab!
Warrant "I Saw Red"
From the Album "Cherry Pie" Words and music by Jani Lane.
Album date 1990, Transcribed by ..Maverick..
Any corrections or comments send to [email protected]
"I Saw Red"
"I Saw Red"
intro: Play slowly! Oooh, Yeah..
|---------3--2---3------------3--2----3-------2-3-2-------2-3--------3----3-|
|-------3------3---3--------3-------3---3-----3-----3-----3------------3--3-|
|-----0-------------------0-------------------2-------2---2------0--------0-|
|---0-------------------2---------------------0-----------0--------0------0-|
|-3------------------------------------------------------------3----------3-|
|--------------------0------------------------------------------------------|
(G) (D/F#) (Em) (D) C(9)
Ooh it must be magic how inside your eyes I see my destiny-
(G) (D/F#) (Em) (D) C(9)
Everytime we kiss I feel you breath your love so deep inside of me
(Em7) (A) C(9) C(9) (G)
If the moon and stars should fall they`d be easy to replace I whould
(Em7) (A) C(9) (G)
lift you up to heaven and you whould take their place.
(E5) (G) (D) C(9) (E5)(G) (D)
C(9)
Then I saw red When I opened up the door, I saw red my heart just
spilled
(E5) (A) C(9) (E5) (A) C(9)
C(9)
onto the floor. And I didn`t need to see his face. I saw yours, I
saw
(D) (G) C(9) (D) C(9)
Red and I closed the door. I don`t think I`m gonna love you anymore.
|---------3--2---3------------3--2----3-------2-3-2-------2-3--------3----3-|
|-------3------3---3--------3-------3---3-----3-----3-----3------------3--3-|
|-----0-------------------0-------------------2-------2---2------0--------0-|
|---0-------------------2---------------------0-----------0--------0------0-|
|-3------------------------------------------------------------3----------3-|
|--------------------0------------------------------------------------------|
(C5) (E5) (D5)
I`ve been hurt and I`ve been blind I`m not sure that I`ll be fine
(C5)
I never thought it would end this way...
solo: (E5) (D5)
|------------------12-14-14^-14---------------14-15-14-12-14-15-17-15-14----|
|---------------12--------------15---------------------------------------17-|
|-14^12---14^~~--------------------14-14^-14^-------------------------------|
|------14-------------------------------------------------------------------|
|---------------------------------------------------------------------------|
|---------------------------------------------------------------------------|
(C5)
|-14-15-17-15-14-----14-15-17-15-14---14-15-17-15-13-12-15-12----12-15-12----|
|----------------17-----------------17------------------------15----------15-|
|----------------------------------------------------------------------------|
|----------------------------------------------------------------------------|
|----------------------------------------------------------------------------|
|----------------------------------------------------------------------------|
|-12-10-12-10--------------------------------------------------------------|
|-------------12-13-12-10-12-13-15-13-12-----------------------------------|
|----------------------------------------14-11-12-11----11-12-14-12-11-----|
|----------------------------------------------------14----------------12~-|
|--------------------------------------------------------------------------|
|--------------------------------------------------------------------------|
(E5) (G) (D) C(9) (E5)(G) (D) C(9)
I saw red When I opened up the door, I saw red my heart just spilled
(E5) (A) C(9) (E5) (A) C(9)
C(9)
onto the floor.Mm And I didn`t need to see his face. I saw yours, I
saw
(D) (G) C(9) (D) C(9)
Red and I closed the door. I don`t think I`m gonna love you anymore.
Fill.1
|-2-3-2------2--3--|
|-3-----3----3-----|
|-2-------2--2-----|
|-0----------0-----|
|------------------|
|------------------|
Chords
(Em7) (A) C(9) (G) (Em) (D/F#) (C5) (D5) (E5) (D)
|-3----------0------3-----0----2------------------------2--|
|-3-----2----3------0-----0----3------------------------3--|
|-0-----2----0------0-----0----2--------5-----7---------2--|
|-2-----2----2------0-----2----0--------5-----7----2----0--|
|-2-----0----3------2-----2----x--------3-----5----2-------|
|-0-----------------3-----0----2-------------------0-------|





Ваше мнение



Капча