(А.Романов)

E||---9/10--10----10-|-----9-------7----7------7--|
H||--11/12--12----12-|-----10------8----8------8--|
G||------------------|----------------------------|
D||------------------|----------------------------|
A||------------------|----------------------------|
E||------------------|--0----------0--------------|

|---5---3----0--0----0--|------------0--------0--------0--|
|---7---5----2--0----0--|---------3--------2--------1-----|
|-----------------------|------4--------3--------2--------|
|-----------------------|---------------------------------|
|-0-----0---------------|---------------------------------|
|-----------------------|--0------------------------------|

|--0------------------------------|
|--0---------------3------3----0--|
|--1---------------2--------------|
|------------------1--------------|
|-------0--1----2-----------------|
|---------------------------------|

E A7
Посмотри как я живу
E
Глядя с неба на Москву
A7
Слышишь музыку в часах
E
Шаг за шагом день за днем
H7
Мир похож на черепаху
A7
В круглом домике своем

Посмотри как я живу
Как по злому волшебству
Я свободен как разбойник
Я спокоен как покойник
В тихом домике моем
Можно спрятаться вдвоем

Посмотри как я живу
Пью коньяк, курю траву
На измученой гитаре
Ночь в угаре день в кумаре
Кайф похожий на облом
В светлом домике моем

Посмотри как я живу
По течению плыву
Благодарен каждой твари
На зеленом нашем шаре
На шести бесшумных лапах
Мимо молодость прошла




Ваше мнение



Капча