e: Wed, 13 May 1998 22:01:47 -0400
From: ANGEL RAT
Subject: v/voivod/nanoman.tab
"NANOMAN" by Voivod, from _NEGATRON_ (1995)
Tabbed by Stephane Ducasse ([email protected])
Song notes: This transcription is the best my ears and brain can
figure out from listening to the CD. The relative timing of the notes
is implied in the transcription; listen to the CD for the exact rhythm.
Comments and correction are welcome.
---------------------------------NANOMAN-------------------------------------

Drums intro 7x E/5-
E||--------------------||-------------------|------------------|
B||--------------------||-------------------|------------------|
G||*------------------*||-------------------|------------------|
D||*------------------*||--8----------------|------------------|
A||--------------------||--7----------------|------------------|
E||--------------------||-------------------|------------------|
Let ring....
E/5-
------------------|------------------|-------------------|
------------------|------------------|-------------------|
------------------|------------------|--9----------------|
------------------|------------------|--8----------------|
------------------|------------------|--7----------------|
------------------|------------------|-------------------|
let ring....
------------------|------------------|------------------|
------------------|------------------|------------------|
------------------|------------------|------------------|
------------------|------------------|------------------|
------------------|------------------|------------------|
------------------|------------------|------------------|
E5 2x
||----------------------------|-------------------||
||----------------------------|-------------------||
||*---------------------------|------------------*||
||*------------------2--------|------------------*||
||-------------------2--------|-------------------||
||---0-0-0-0-0-0-0-0-0--------|-------------------||
E5
|-----------------------------|-------------------|
|-----------------------------|-------------------|
|-----------------------------|-------------------|
|------------------2----------|-------------------|
|------------------2----0--0--|--x/---------------|
|--0-0-0-0-0-0-0-0-0----------|--x/---------------|
Pick slide
E5 G5 F#5 F5 2x
||------------------------------|--------------------------||
||------------------------------|--------------------------||
||*-----------------------------|-------------------------*||
||*------------------2----------|--5--------4--------3----*||
||-------------------2----------|--5--------4--------3-----||
||---0-0-0-0-0-0-0-0-0----0--0--|--3--0--0--2--0--0--1-----||
E5 E5 F5 F#5
|-----------------------------|-----------------------|
|-----------------------------|-----------------------|
|-----------------------------|-----------------------|
|------------------2----------|--2-------3-------4----|
|------------------2----------|--2-------3-------4----|
|--0-0-0-0-0-0-0-0-0----0--0--|--0----0--1----0--2----|
G5 3x E5
||----------------------------||------------------------------|
||----------------------------||------------------------------|
||*--------------------------*||*-----------------------------|
||*--5--5--5--5--5--5--5--5--*||*------------------2----------|
||---5--5--5--5--5--5--5--5---||-------------------2----------|
||---3--3--3--3--3--3--3--3---||---0-0-0-0-0-0-0-0-0----0--0--|
G5 F#5 F5 2x E5
|--------------------------||-----------------------------|
|--------------------------||-----------------------------|
|-------------------------*||-----------------------------|
|--5--------4--------3----*||------------------2----------|
|--5--------4--------3-----||------------------2----------|
|--3--0--0--2--0--0--1-----||--0-0-0-0-0-0-0-0-0----0--0--|
E5 F5 F#5 G5 3x
|-----------------------||----------------------------||
|-----------------------||----------------------------||
|-----------------------||*--------------------------*||
|--2-------3-------4----||*--5--5--5--5--5--5--5--5--*||
|--2-------3-------4----||---5--5--5--5--5--5--5--5---||
|--0----0--1----0--2----||---3--3--3--3--3--3--3--3---||
E5 G5 F#5 F5 2x
||------------------------------|--------------------------||
||------------------------------|--------------------------||
||*-----------------------------|-------------------------*||
||*------------------2----------|--5--------4--------3----*||
||-------------------2----------|--5--------4--------3-----||
||---0-0-0-0-0-0-0-0-0----0--0--|--3--0--0--2--0--0--1-----||
E5 G5 F#5 F5
|-----------------------------|-----------------------|
|-----------------------------|-----------------------|
|-----------------------------|-----------------------|
|------------------2----------|--5-------4-------3----|
|------------------2----------|--5-------4-------3----|
|--0-0-0-0-0-0-0-0-0----0--0--|--3----0--2----0--1----|
E5 G5 F#5 F5 2x
||------------------------------|--------------------------||
||------------------------------|--------------------------||
||*-----------------------------|-------------------------*||
||*------------------2----------|--5--------4--------3----*||
||-------------------2----------|--5--------4--------3-----||
||---0-0-0-0-0-0-0-0-0----0--0--|--3--0--0--2--0--0--1-----||
E5 E5 F5 F#5
|-----------------------------|-----------------------|
|-----------------------------|-----------------------|
|-----------------------------|-----------------------|
|------------------2----------|--2-------3-------4----|
|------------------2----------|--2-------3-------4----|
|--0-0-0-0-0-0-0-0-0----0--0--|--0----0--1----0--2----|
Chorus
D5
|--------------------------|--------------------------|
|--------------------------|--------------------------|
|--------------------------|--------------------------|
|--7--7--7--7--7--7--7--7--|--7--7--7--7--7--7--7--7--|
|--5--5--5--5--5--5--5--5--|--5--5--5--5--5--5--5--5--|
|--------------------------|--------------------------|
C5
|--------------------------|--------------------------|
|--------------------------|--------------------------|
|--------------------------|--------------------------|
|--5--5--5--5--5--5--5--5--|--5--5--5--5--5--5--5--5--|
|--3--3--3--3--3--3--3--3--|--3--3--3--3--3--3--3--3--|
|--------------------------|--------------------------|
D5
|--------------------------|--------------------------|
|--------------------------|--------------------------|
|--------------------------|--------------------------|
|--7--7--7--7--7--7--7--7--|--7--7--7--7--7--7--7--7--|
|--5--5--5--5--5--5--5--5--|--5--5--5--5--5--5--5--5--|
|--------------------------|--------------------------|
C5 E5
|--------------------------|--------------------------|
|--------------------------|--------------------------|
|--------------------------|--------------------------|
|--5--5--5--5--5--5--5--5--|--------------------------|
|--3--3--3--3--3--3--3--3--|--2--2--2--2--2--2--2--2--|
|--------------------------|--0--0--0--0--0--0--0--0--|
C5 E5
|--------------------------|--------------------------|
|--------------------------|--------------------------|
|--------------------------|--------------------------|
|--5--5--5--5--5--5--5--5--|--------------------------|
|--3--3--3--3--3--3--3--3--|--2--2--2--2--2--2--2--2--|
|--------------------------|--0--0--0--0--0--0--0--0--|
end of chorus
C5 D5
|--------------------------|--------------------------|
|--------------------------|--------------------------|
|--------------------------|--------------------------|
|--5--5--5--5--5--5--5--5--|--7--7--7--7--7--7--7--7--|
|--3--3--3--3--3--3--3--3--|--5--5--5--5--5--5--5--5--|
|--------------------------|--------------------------|
E5 G5 F#5 F5
|-----------------------------|-------------------------|
|-----------------------------|-------------------------|
|-----------------------------|-------------------------|
|------------------2----------|--5--------4--------3----|
|------------------2----------|--5--------4--------3----|
|--0-0-0-0-0-0-0-0-0----0--0--|--3--0--0--2--0--0--1----|
E5
|---------------------------|------------------|
|---------------------------|------------------|
|---------------------------|------------------|
|------------------2--------|------------------|
|------------------2--------|------------------|
|--0-0-0-0-0-0-0-0-0--------|------------------|
E5 G5 F#5 F5 2x
|------------------------------|--------------------------||
|------------------------------|--------------------------||
|*-----------------------------|-------------------------*||
|*------------------2----------|--5--------4--------3----*||
|-------------------2----------|--5--------4--------3-----||
|---0-0-0-0-0-0-0-0-0----0--0--|--3--0--0--2--0--0--1-----||
E5 G5 F#5 F5
|-----------------------------|-----------------------|
|-----------------------------|-----------------------|
|-----------------------------|-----------------------|
|------------------2----------|--5-------4-------3----|
|------------------2----------|--5-------4-------3----|
|--0-0-0-0-0-0-0-0-0----0--0--|--3----0--2----0--1----|
E5 G5 F#5 F5 2x
||------------------------------|--------------------------||
||------------------------------|--------------------------||
||*-----------------------------|-------------------------*||
||*------------------2----------|--5--------4--------3----*||
||-------------------2----------|--5--------4--------3-----||
||---0-0-0-0-0-0-0-0-0----0--0--|--3--0--0--2--0--0--1-----||
E5 E5 F5 F#5
|-----------------------------|-----------------------|
|-----------------------------|-----------------------|
|-----------------------------|-----------------------|
|------------------2----------|--2-------3-------4----|
|------------------2----------|--2-------3-------4----|
|--0-0-0-0-0-0-0-0-0----0--0--|--0----0--1----0--2----|
Chorus
D5
|--------------------------|--------------------------|
|--------------------------|--------------------------|
|--------------------------|--------------------------|
|--7--7--7--7--7--7--7--7--|--7--7--7--7--7--7--7--7--|
|--5--5--5--5--5--5--5--5--|--5--5--5--5--5--5--5--5--|
|--------------------------|--------------------------|
C5
|--------------------------|--------------------------|
|--------------------------|--------------------------|
|--------------------------|--------------------------|
|--5--5--5--5--5--5--5--5--|--5--5--5--5--5--5--5--5--|
|--3--3--3--3--3--3--3--3--|--3--3--3--3--3--3--3--3--|
|--------------------------|--------------------------|
D5
|--------------------------|--------------------------|
|--------------------------|--------------------------|
|--------------------------|--------------------------|
|--7--7--7--7--7--7--7--7--|--7--7--7--7--7--7--7--7--|
|--5--5--5--5--5--5--5--5--|--5--5--5--5--5--5--5--5--|
|--------------------------|--------------------------|
C5 E5
|--------------------------|--------------------------|
|--------------------------|--------------------------|
|--------------------------|--------------------------|
|--5--5--5--5--5--5--5--5--|--------------------------|
|--3--3--3--3--3--3--3--3--|--2--2--2--2--2--2--2--2--|
|--------------------------|--0--0--0--0--0--0--0--0--|
C5 E5
|--------------------------|--------------------------|
|--------------------------|--------------------------|
|--------------------------|--------------------------|
|--5--5--5--5--5--5--5--5--|--------------------------|
|--3--3--3--3--3--3--3--3--|--2--2--2--2--2--2--2--2--|
|--------------------------|--0--0--0--0--0--0--0--0--|
end of chorus
C5 D5
|--------------------------|--------------------------|
|--------------------------|--------------------------|
|--------------------------|--------------------------|
|--5--5--5--5--5--5--5--5--|--7--7--7--7--7--7--7--7--|
|--3--3--3--3--3--3--3--3--|--5--5--5--5--5--5--5--5--|
|--------------------------|--------------------------|

3x B5 3x
||------------------------------------||----------------------------||
||------------------------------------||----------------------------||
||*----------------------------------*||*--------------------------*||
||*----------------------------------*||*--4--4--4--4--4--4--4--4--*||
||------------------------------------||---2--2--2--2--2--2--2--2---||
||---0-0-0-0-0-0-0-0-0-0-0-0-0-0-0-0--||----------------------------||

rhythm during guitar solo
3x B5 3x
||------------------------------------||----------------------------||
||------------------------------------||----------------------------||
||*----------------------------------*||*--------------------------*||
||*----------------------------------*||*--4--4--4--4--4--4--4--4--*||
||------------------------------------||---2--2--2--2--2--2--2--2---||
||---0-0-0-0-0-0-0-0-0-0-0-0-0-0-0-0--||----------------------------||
C5 E5
|--------------------------|--------------------------|
|--------------------------|--------------------------|
|--------------------------|--------------------------|
|--5--5--5--5--5--5--5--5--|--------------------------|
|--3--3--3--3--3--3--3--3--|--2--2--2--2--2--2--2--2--|
|--------------------------|--0--0--0--0--0--0--0--0--|
C5 E5
|--------------------------|--------------------------|
|--------------------------|--------------------------|
|--------------------------|--------------------------|
|--5--5--5--5--5--5--5--5--|--------------------------|
|--3--3--3--3--3--3--3--3--|--2--2--2--2--2--2--2--2--|
|--------------------------|--0--0--0--0--0--0--0--0--|

End of guitar solo
C5 D5
|--------------------------|--------------------------|
|--------------------------|--------------------------|
|--------------------------|--------------------------|
|--5--5--5--5--5--5--5--5--|--7--7--7--7--7--7--7--7--|
|--3--3--3--3--3--3--3--3--|--5--5--5--5--5--5--5--5--|
|--------------------------|--------------------------|

E/5-
|-------------------|------------------|------------------|
|-------------------|------------------|------------------|
|-------------------|------------------|------------------|
|--8----------------|------------------|------------------|
|--7----------------|------------------|------------------|
|-------------------|------------------|------------------|
Let ring
E/5-
|------------------|-------------------|------------------|
|------------------|-------------------|------------------|
|------------------|--9----------------|------------------|
|------------------|--8----------------|------------------|
|------------------|--7----------------|------------------|
|------------------|-------------------|------------------|
Let ring
E5
|------------------|------------------||----------------------------|
|------------------|------------------||----------------------------|
|------------------|------------------||*---------------------------|
|------------------|------------------||*------------------2--------|
|------------------|------------------||-------------------2--------|
|------------------|------------------||---0-0-0-0-0-0-0-0-0--------|
2x E5
|-------------------||-----------------------------|
|-------------------||-----------------------------|
|------------------*||-----------------------------|
|------------------*||------------------2----------|
|-------------------||------------------2----------|
|-------------------||--0-0-0-0-0-0-0-0-0----0--0--|
E5
|-------------------||----------------------------|
|-------------------||----------------------------|
|-------------------||*---------------------------|
|-------------------||*------------------2--------|
|--x/---------------||-------------------2--------|
|--x/---------------||---0-0-0-0-0-0-0-0-0--------|
Pick slide
2x E5
|-------------------||---------------------------|
|-------------------||---------------------------|
|------------------*||---------------------------|
|------------------*||------------------2--------|
|-------------------||------------------2--------|
|-------------------||--0-0-0-0-0-0-0-0-0--------|
E5 F5 F#5 G5 3x
|-----------------------||----------------------------||
|-----------------------||----------------------------||
|-----------------------||*--------------------------*||
|--2-------3-------4----||*--5--5--5--5--5--5--5--5--*||
|--2-------3-------4----||---5--5--5--5--5--5--5--5---||
|--0----0--1----0--2----||---3--3--3--3--3--3--3--3---||
E5 G5 F#5 F5 2x
||------------------------------|--------------------------||
||------------------------------|--------------------------||
||*-----------------------------|-------------------------*||
||*------------------2----------|--5--------4--------3----*||
||-------------------2----------|--5--------4--------3-----||
||---0-0-0-0-0-0-0-0-0----0--0--|--3--0--0--2--0--0--1-----||
E5 G5 F#5 F5
|-----------------------------|-----------------------|
|-----------------------------|-----------------------|
|-----------------------------|-----------------------|
|------------------2----------|--5-------4-------3----|
|------------------2----------|--5-------4-------3----|
|--0-0-0-0-0-0-0-0-0----0--0--|--3----0--2----0--1----|
E5 G5 F#5 F5 2x
||------------------------------|--------------------------||
||------------------------------|--------------------------||
||*-----------------------------|-------------------------*||
||*------------------2----------|--5--------4--------3----*||
||-------------------2----------|--5--------4--------3-----||
||---0-0-0-0-0-0-0-0-0----0--0--|--3--0--0--2--0--0--1-----||
E5 E5 F5 F#5
|-----------------------------|-----------------------|
|-----------------------------|-----------------------|
|-----------------------------|-----------------------|
|------------------2----------|--2-------3-------4----|
|------------------2----------|--2-------3-------4----|
|--0-0-0-0-0-0-0-0-0----0--0--|--0----0--1----0--2----|
Outro
D5
|--------------------------|--------------------------|
|--------------------------|--------------------------|
|--------------------------|--------------------------|
|--7--7--7--7--7--7--7--7--|--7--7--7--7--7--7--7--7--|
|--5--5--5--5--5--5--5--5--|--5--5--5--5--5--5--5--5--|
|--------------------------|--------------------------|
C5
|--------------------------|--------------------------|
|--------------------------|--------------------------|
|--------------------------|--------------------------|
|--5--5--5--5--5--5--5--5--|--5--5--5--5--5--5--5--5--|
|--3--3--3--3--3--3--3--3--|--3--3--3--3--3--3--3--3--|
|--------------------------|--------------------------|
D5
|--------------------------|--------------------------|
|--------------------------|--------------------------|
|--------------------------|--------------------------|
|--7--7--7--7--7--7--7--7--|--7--7--7--7--7--7--7--7--|
|--5--5--5--5--5--5--5--5--|--5--5--5--5--5--5--5--5--|
|--------------------------|--------------------------|
C5 E5 6x
||---------------------------|---------------------------||
||---------------------------|---------------------------||
||*--------------------------|--------------------------*||
||*--5--5--5--5--5--5--5--5--|--------------------------*||
||---3--3--3--3--3--3--3--3--|--2--2--2--2--2--2--2--2---||
||---------------------------|--0--0--0--0--0--0--0--0---||
C5 D5
|--------------------------|--------------------------|
|--------------------------|--------------------------|
|--------------------------|--------------------------|
|--5--5--5--5--5--5--5--5--|--7--7--7--7--7--7--7--7--|
|--3--3--3--3--3--3--3--3--|--5--5--5--5--5--5--5--5--|
|--------------------------|--------------------------|

E5
|----------------------|-------------------|--||
|----------------------|-------------------|--||
|----------------------|-------------------|--||
|----------------------|-------------------|--||
|----------------------|--2----------------|--||
|--0----0----0----0----|--0----------------|--||
...Fin...





Ваше мнение



Капча