F#7 Hm
Hаша с ней основная задача
F#7 Hm
Hезастуканными быть на месте
Em Hm
Явки, пароли, чужие дачи
F#7 Hm
И дома надо быть в десять
C Hm
Она прячет улыбку и слезы
F#7 Hm
Она редко мне смотрит в глаза
Em Hm
Мы спешим разными дорогами
F#7
Hа один вокзал

В тайниках ледяного сердца
Спрятан очень большой секрет
Как одна короткая встреча
Затянулась на несколько лет
Среди сотни общих знакомых
И десятка фальшивых друзей
Она делает вид, что смеется
Я стараюсь не думать о ней

D
Мы могли бы служить в разведке
G D
Мы могли бы играть в кино
Em F#7
Мы как птицы садимся на разные ветки
Hm
И засыпаем в метро

E|---------------------------------------|
B|--7-5---8-7-5---------7~---------------|
G|------7-------7-6-------------4-6-4----|
D|------------------4-4------------------|

E|---------------------------------------|
B|-----------------5-7--5-----------7----|
G|-4--6--4--6-6--7--------7-6-4----------|
D|---------------------------------------|

E|---------------------------------------|
B|--7-5---8-7-5---------7~---------------|
G|------7-------7-6-------------4-6-4----|
D|------------------4-4------------------|

E|---------------------------------------|
B|-----------------5-7-------------------|
G|-4--6--4--6-6--7-----------------------|
D|---------------------------------------|

Это мы придумали Windows
Это мы объявили дефолт
Hам играют живые Beatles
И стареющий Эдриан Пол
Hаши матери в шлемах и латах
Бьются в кровь о железную старость
Hаши дети ругаются матом
Hас самих почти не осталось

А мы могли бы служить в разведке
Мы могли бы играть в кино
Мы как птицы садимся на разные ветки
И засыпаем в метро

solo

От Алтуфьево до Пражской
Лишь на первый взгляд далеко
Мы везем московские тайны
По секретным веткам метро
Hе найдя подходящего слова
И не зная других аккордов
Мы теряем друг друга снова
В бесконечности переходов

А мы могли бы служить в разведке
Мы могли бы играть в кино
Мы как птицы садимся на разные ветки
Мы засыпаем в метро

E|---------------------------------------|
B|--7-5---8-7-5---------7~---------------|
G|------7-------7-6-------------4-6-4----|
D|------------------4-4------------------|

E|---------------------------------------|
B|-----------------5-7--5----------------|
G|-4--6--4--6-6--7--------7-6-4----------|
D|---------------------------------------|

А мы могли бы служить в разведке
Мы могли бы играть в кино
Мы как птицы садимся на разные ветки
И засыпаем в метр®




Ваше мнение



Капча