From [email protected] Sun May 4 10:46:45 1997
Date: Wed, 02 Apr 1997 12:28:07 +0000
From: I God
To: [email protected]
Subject: TAB: "Volcano Girls" by Veruca Salt
Volcano Girls
As performed by Veruca Salt
Album Title: Eight Arms to Hold You
Transcription by Marlin Liew ([email protected])
________________________________________________________
Guitar 1: Distortion, Heavy
Guitar 2: Distortion with Wah as filter
________________________________________________________
Intro:
B5 D5 E5 B5
E|------------------------------------------------------
B|------------------------------------------------------
G|---4----4-7----7-9---9-4------------------------------
D|---4----4-7----7-9---9-4------------------------------
A|---2----2-5----5-7---7-2------------------------------
E|------------------------------------------------------
Verse:
The guitar is playing continous eighth notes and switches
between these chords.
B G A
E|------------------------------------------------------
B|---7-------3-------5----------------------------------
G|---8-------4-------4----------------------------------
D|---9-------5-------7----------------------------------
A|---9-------5-------7----------------------------------
E|---7-------3-------5----------------------------------
Pre-Chorus/Post-Chorus:
Guitar one and two play the rhythm below while
Another guitar plays the bends near the end.
B5 D5/E5 B5 A
E|------------------------------------------------------
B|------------------------------------------------------
G|--4-4--7/9-9--4-4-4-6---------------------------------
D|--4-4--7/9-9--4-4-4-7---------------------------------
A|--2-2--5/7-7--2-2-2-7---------------------------------
E|--------------------5---------------------------------
E|------------------------------------------------------
B|------------------------------------------------------
G|---7(Bend 1/2)---9(B 1/2)-----------------------------
D|------------------------------------------------------
A|------------------------------------------------------
E|------------------------------------------------------
Chorus:
Same as the intro except when she says "Go I don't wanna..."
play a D5 and then slide up to E5.
Bridge:
This is the part when she talks about the Seether. Like in
Seether, play with a slight palm mute.
Play A to G two times, then play the following rhythm.
B G A
E|------------------------------------------------------
B|------------------------------------------------------
G|---8---4---6------------------------------------------
D|---9---5---7------------------------------------------
A|---9---5---7------------------------------------------
E|---7---3---5------------------------------------------
________________________________________________________
That's pretty much it except for the solo. If someone
wants to take the time a figure it out, please LMK.
This TAB and more can be found on my webpage at:
http://userzweb.lightspeed.net/~mliew
________________________________________________________
Enjoy!
Marlin Liew
Date: Sunday, 9 March
From: David Harrison
Subject: TAB: "Volcano Girls" by "Veruca Salt"
Album: "Eight Arms To Hold You"(1997)
This is a pretty easy song to play but it sounds kinda
cool so who gives a sh*t right. Anyway have fun with it.
If you have any questions, comments, additions, or
corrections feel free to e-mail me at the address above.
TAB EXPLAINATION:
b - bend
r - release
~ - vibrato
\ - slide down the fret
/ - slide up the fret
X - mute
p - pull off
h - hammer on
p.m. - palm mute
E|-------------------------------------------------------------|
B|-------------------------------------------------------------|
G|--4---4/77---7/99---9\44---4/77---7/99---9\44---4/77---7/99--|
D|--4---4/77---7/99---9\44---4/77---7/99---9\44---4/77---7/99--|
A|--2---2/55---5/77---7\22---2/55---5/77---7\22---2/55---5/77--|
E|-------------------------------------------------------------|
E|----{ 3x }-------------------------------|
B|----------------3-------5------------------------------------|
G|--9\-24X7999-4--5b~~-7--7b~~~-2447999---4444444444444444-----|
D|--9\-24X7999X40------70-------2447999\4-4444444444444444--22-|
A|--7\-02X5777X20------50-------0225777---2222222222222222--22-|
E|----------------------------------------------------------00-|
E|-------------------------------------------------------------|
B|-------------------------------------------------------------|
G|-------------------4444444444444444------------------2-4-444-|
D|-22222---5555555---4444444444444444--55555555--77777-2-4-444-|
A|-222220--55555550--2222222222222222--55555555--77777-0-2-222-|
E|-000000--33333330--------------------33333333--55555---------|
E|-------------------------------------------------------------|
B|-------------------------------------------------------------|
G|-44444444444----------------------4444444444444444-----------|
D|-44444444444--2222222---5555555---4444444444444444--55555555-|
A|-22222222222--22222220--55555550--2222222222222222--55555555-|
E|--------------00000000--33333330--------------------33333333-|
E|-------------------------------------------------------------|
B|-------------------------------------------------------------|
G|-----------4---4/77---7/99---9\44---4/77---7/99---9\-24X7999-|
D|-77777777--4---4/77---7/99---9\44---4/77---7/99---9\-24X7999-|
A|-77777777--2---2/55---5/77---7\22---2/55---5/77---7\-02X5777-|
E|-55555555----------------------------------------------------|
E|------------------------------------------------------------|
B|-------3-------5--------------------------------------------|
G|---4--5b~~-7--7b~~~--2447999----4444444444444444------------|
D|--X40------70--------2447999\4--4444444444444444--2222222---|
A|--X20------50--------0225777----2222222222222222--22222220--|
E|--------------------------------------------------00000000--|
E|-------------------------------------------------------------|
B|-------------------------------------------------------------|
G|-----------4444444444444444------------------2-4-4444444444--|
D|-5555555---4444444444444444--55555555--77777-2-4-4444444444--|
A|-55555550--2222222222222222--55555555--77777-0-2-2222222222--|
E|-33333330--------------------33333333--55555-----------------|
E|-------------------------------------------------------------|
B|-------------------------------------------------------------|
G|-4444----------------------4444444444444444------------------|
D|-4444--2222222---5555555---4444444444444444--55555555--77777-|
A|-2222--22222220--55555550--2222222222222222--55555555--77777-|
E|-------00000000--33333330--------------------33333333--55555-|
E|-------14-----------17b~~r----------------1412\10------9p8p7-|
B|-------17b~~~~~r-15--------15b~~r-12--1215-------12----------|
G|-------------------------------------------------------------|
D|-77----------------------------------------------------------|
A|-770---------------------------------------------------------|
E|-550---------------------------------------------------------|
E|-9p8p7-9p8p7-9p8p7--7p6p5-7p6p5-7p6p5-7p6p5--5b~~rp3---------|
B|----------------------------------------------------5b~~r-3p0|
G|-------------------------------------------------------------|
D|-------------------------------------------------------------|
A|-------------------------------------------------------------|
E|-------------------------------------------------------------|
E|-------------------------------------------------------------|
B|----------------------3p2p0--------------------------3-53----|
G|-4244-24242-2h4p24-24---------------------2-4244-24-4--------|
D|---------------------------3p2p0-----5p4p2-------------------|
A|--------------------------------5p4p2------------------------|
E|-------------------------------------------------------------|
E|------------{ 3X }-----------{ P.M. |
B|{ 4X }------------3--------5-----------------{ 2X }|
G|-9--7\4/7\4--24X7999-4--5b~~r-7--7b~~~r---24X7999\--4444444--|
D|-9--7\4/7\4--24X7999-40-------70----------24X7999\--44444440-|
A|-7--5\2/5\2--02X5777020-------50----------02X5777\--22222220-|
E|-------------------------------------------------------------|
E| P.M. P.M. P.M. P.M. P.M. P.M. P.M. P.M. |
B|-------------------------------------------------------------|
G|-4444444444444444----------------------4444444444444444------|
D|-4444444444444444--2222222---5555555---4444444444444444--555-|
A|-2222222222222222--22222220--55555550--2222222222222222--555-|
E|-------------------00000000--33333330--------------------333-|
E| P.M. }-----------------------------------------------------|
B|-------------------------------{ 3X }-|
G|--------------------------------44444444/77777777/99999999\--|
D|-55555--7~----------------------44444444/77777777/99999999\--|
A|-55555--7~----------------------22222222/55555555/77777777\--|
E|-33333--5~---------------------------------------------------|
E|-----------------------------------||
B|------------------{ 4X }-----||
G|-44444444/7777777--9--7\4/7\4--9\--||
D|-44444444/7777777--9--7\4/7\4--9\--||
A|-22222222/5555555--7--5\2/5\2--7\--||
E|-----------------------------------||





Ваше мнение



Капча