Volcano Girls-Veruca Salt
Eight Arms To Hold You
E A D G B E
Intro: Fig 1. x3
e-----------------------------------------------------------------
b-----------------------------------------------------------------
g-8------------8/11-11------------11/13-13------------13---------
d-9------------9/12-12------------12/14-14------------14---------
a-9------------9/12-12------------12/14-14------------14---------
e-7------------7/10-10------------10/12-12------------12---------
Fig 2. x3
e-----------------------------------------------------------------
b-----------------------------------------------------------------
g----------7--9--9--9-----------7----------9----------------------
d-7--9-----7--9--9--9--9--9--9--7----9--9--9----------------------
a-7--9-----5--7--7--7--9--9--9--5----9--9--7----------------------
e-5--7-----5--7--7--7--7--7--7--5----7--7--7----------------------
Fill 1. x3
e-----------------------------------------------------------------
b-------------------------------3----------5----------------------
g-------------------------------5b~--------7b~--------------------
d-----------------------------------------------------------------
a-----------------------------------------------------------------
e-----------------------------------------------------------------
then
e-----------------------------------------------------------------
b-----------------------------------------------------------------
g----------7--9--9--9---------------------------------------------
d-7--9-----7--9--9--9--9------------------------------------------
a-7--9-----5--7--7--7--9------------------------------------------
e-5--7-----5--7--7--7--7------------------------------------------
Verses 1 & 2
e-----------------------------------------------------------------
b-----------------------------------------------------------------
g-----------------------------------------------------------------
d-9-9-9-9-9-9-9-9-9-9-9-9-9-9-9-2-2-2-2-2-2-2-2-5-5-5-5-5-5-5-5-9-
a-9-9-9-9-9-9-9-9-9-9-9-9-9-9-9-2-2-2-2-2-2-2-2-5-5-5-5-5-5-5-5-9-
e-7-7-7-7-7-7-7-7-7-7-7-7-7-7-7-0-0-0-0-0-0-0-0-3-3-3-3-3-3-3-3-7-
e-----------------------------------------------------------------
b-----------------------------------------------------------------
g-----------------------------------------------------------------
d-9-9-9-9-9-9-9-9-9-9-9-9-9-9-9-5-5-5-5-5-5-5-5-2-2-2-2-2-2--7--9-
a-9-9-9-9-9-9-9-9-9-9-9-9-9-9-9-5-5-5-5-5-5-5-5-2-2-2-2-2-2--7--9-
e-7-7-7-7-7-7-7-7-7-7-7-7-7-7-7-3-3-3-3-3-3-3-3-0-0-0-0-0-0--5--7-
e-----------------------------------------------------------------
b-----------------------------------------------------------------
g-----------------------------------------------------------------
d-9-9-9-9-9-9-9-9-9-9-9-9-9-9-9-2-2-2-2-2-2-2-2-5-5-5-5-5-5-5-5-9-
a-9-9-9-9-9-9-9-9-9-9-9-9-9-9-9-2-2-2-2-2-2-2-2-5-5-5-5-5-5-5-5-9-
e-7-7-7-7-7-7-7-7-7-7-7-7-7-7-7-0-0-0-0-0-0-0-0-3-3-3-3-3-3-3-3-7-
e-----------------------------------------------------------------
b-----------------------------------------------------------------
g-----------------------------------------------------------------
d-9-9-9-9-9-9-9-9-9-9-9-9-9-9-9-5-5-5-5-5-5-5-5-7-7-7-7-7-7-7-7-9-
a-9-9-9-9-9-9-9-9-9-9-9-9-9-9-9-5-5-5-5-5-5-5-5-7-7-7-7-7-7-7-7-9-
e-7-7-7-7-7-7-7-7-7-7-7-7-7-7-7-3-3-3-3-3-3-3-3-5-5-5-5-5-5-5-5-7-
Chorus: Fig 1 x2
Fig 2.
e-----------------------------------------------------------------
b-----------------------------------------------------------------
g----------7--9--9--9-----------7----------9----------------------
d-7--9-----7--9--9--9--9--9--9--7----9--9--9----------------------
a-7--9-----5--7--7--7--9--9--9--5----9--9--7----------------------
e-5--7-----5--7--7--7--7--7--7--5----7--7--7----------------------
Fill 1.
e-----------------------------------------------------------------
b-------------------------------3----------5----------------------
g-------------------------------5b~--------7b~--------------------
d-----------------------------------------------------------------
a-----------------------------------------------------------------
e-----------------------------------------------------------------
then
e-----------------------------------------------------------------
b-----------------------------------------------------------------
g----------7--9--9--9---------------------------------------------
d-7--9-----7--9--9--9--9------------------------------------------
a-7--9-----5--7--7--7--9------------------------------------------
e-5--7-----5--7--7--7--7------------------------------------------
2nd Verse: play Verse with
Riff A: x2
e-----------------------------------------------------------------
b-----------------------------------------------------------------
g-----4-2----2--------4----2--------4-2----2--------4----2--------
d---4------4---4----4----4---4----4------4---4----4----4---4------
a-2---------------2-------------2---------------2-----------------
e-----------------------------------------------------------------
Guitar Solo:
e-14---------------17br---14--------------1412---14--------------
b-17b~~~~~~~~-15----------15br---------15---------15--12----------
g-------------------------------16--16----------------------------
d-----------------------------------------------------------------
a-----------------------------------------------------------------
e-----------------------------------------------------------------
e------14p12-----14p12-----14p12-----14p12-----12p10-----12p10----
b-14p12-----14p12-----14p12-----14p12-----12p10-----12p10---------
g-----------------------------------------------------------------
d-----------------------------------------------------------------
a-----------------------------------------------------------------
e-----------------------------------------------------------------
e------12p10-----12p10--------------------------------------------
b-12p10-----12p10-------10br--------------------------------------
g----------------------------9br--7br-----8-8-------------9--8----
d-------------------------------------9-7-9-9---7-9p7-9-9--9---7-9
a-----------------------------------------------------------------
e-----------------------------------------------------------------
e-----------------------------------------------------------------
b-----------------------------------------------------------------
g-9p7---------------------7h9--------9--8-----7-8-----8-11----13--
d----9p7---------------7h9----9--7h9----9-----7-9-----9-12----14--
a-------9p7---------7h9-------------------------------------------
e----------10p7-7h10----------------------------------------------
Fig 2.
pm
e-----------------------------------------------------------------
b-----------------------------------------------------------------
g-----------------------------------------------------------------
d-----------------------------------------------------------------
a-9--9--9--9--9--9--9--7--9--9--9--9--9--9--9--7------------------
e-7--7--7--7--7--7--7--5--7--7--7--7--7--7--7--5------------------
3rd Verse:
pm
e-----------------------------------------------------------------
b-----------------------------------------------------------------
g-----------------------------------------------------------------
d-----------------------------------------------------------------
a-9-9-9-9-9-9-9-9-9-9-9-9-9-9-9-9-2-2-2-2-2-2-2-2-5-5-5-5-5-5-5-5-
e-7-7-7-7-7-7-7-7-7-7-7-7-7-7-7-7-0-0-0-0-0-0-0-0-3-3-3-3-3-3-3-3-
pm
e-----------------------------------------------------------------
b-----------------------------------------------------------------
g-----------------------------------------------------------------
d-----------------------------------------------------------------
a-9-9-9-9-9-9-9-9-9-9-9-9-9-9-9-9-5-5-5-5-5-5-5/7-7--------7------
e-7-7-7-7-7-7-7-7-7-7-7-7-7-7-7-7-3-3-3-3-3-3-3/5-5--------5------
Outro: played in the 7th position
x4
e-----------------------------------------------------------------
b-----------------------------------------------------------------
g-4-4-4-4-4-4-4/7-7-7-7-7-7-7-7-7/9-9-9-9-9-9-9-9-9-9-------------
d-4-4-4-4-4-4-4/7-7-7-7-7-7-7-7-7/9-9-9-9-9-9-9-9-9-9-------------
a-2-2-2-2-2-2-2/5-5-5-5-5-5-5-5-5/7-7-7-7-7-7-7-7-7-7-------------
e-----------------------------------------------------------------
e-----------------------------------------------------------------
b-----------------------------------------------------------------
g-4---------------------------------------------------------------
d-4---------------------------------------------------------------
a-2---------------------------------------------------------------
e-----------------------------------------------------------------
that’s all
trevor jones
[email protected]





Ваше мнение



Капча