name: Cindy
artist: Veruca Salt
SongTitle: Used To Know Her
Tabs: Used To Know Her (Louise Post)
Veruca Salt: Resolver (release: 2000/05/16)
tabbed by: [email protected]
Intro: (light distortion/softly)
E G A
e|------------------------------------|
B|------------------------------------|
G|------------------------------------|
D|--2-2-2---2-2--5-5--7-7-7-----------|
A|--2-2-2---2-2--5-5--7-7-7-----------|
E|--0-0-0---0-0--3-3--5-5-5-----------|
(listen to the song to know when the chords change)
I used to know her
I used to talk about her
Waiting for the day when she would listen
I used to know her
I used to stick up for her
Something in her smile was so bitchin'
F#
e|-----------------|
B|-----------------|
G|-----------------|
D|-4-4-4-4-4-4-4-4-|
A|-4-4-4-4-4-4-4-4-|
E|-2-2-2-2-2-2-2-2-|

I used to sing,
A
e|---|
B|---|
G|---|
D|-7-|
A|-7-|
E|-5-| let ring
I used to sing,
E C A F
e|--------------------------------|
B|--------------------------------|
G|---------5-5-5---------10-10-10-|
D|--2-2-2--5-5-5--7-7-7--10-10-10-|
A|--2-2-2--3-3-3--7-7-7--8--8--8--|
E|--0-0-0---------5-5-5-----------|
I used to know her
Used to know all about her
Used to need her
Now there's something about her
I used to torture her
It's the best way around her
Used to know her
Now it just doesn't matter
oh yeah
oh yeah
E G A
e|------------------------------------|
B|------------------------------------|
G|------------------------------------|
D|--2-2-2---2-2--5-5--7-7-7-----------|
A|--2-2-2---2-2--5-5--7-7-7-----------|
E|--0-0-0---0-0--3-3--5-5-5-----------|
I used to fuck him
I used to simplify him
Something in his walk was like Jim Morrisson
I used to touch him
I used to justify him
Lying to my face with my permission

F#
e|-----------------|
B|-----------------|
G|-----------------|
D|-4-4-4-4-4-4-4-4-|
A|-4-4-4-4-4-4-4-4-|
E|-2-2-2-2-2-2-2-2-|

I used to sing
A
e|---|
B|---|
G|---|
D|-7-|
A|-7-|
E|-5-| let ring
I used to sing
E C A F
e|--------------------------------|
B|--------------------------------|
G|---------5-5-5---------10-10-10-|
D|--2-2-2--5-5-5--7-7-7--10-10-10-|
A|--2-2-2--3-3-3--7-7-7--8--8--8--|
E|--0-0-0---------5-5-5-----------|
I used to fuck him
Used to fuckin' love him
Used to need him
Now I read all about him
Used to touch him
No, I could never kiss him
Used to love him
Now I don't even miss him
Oh yeah
e|---------------------|
B|---------------------|
G|--9-9-7-9-9-7-9-7----|
D|------------------10-|
A|---------------------|
E|---------------------|
Oh yeah
Oh yeah
Oh yeah
Oh yeah
Oh yeah
Oh yeah
Used to know her
I used to terrify her
I used to terrify her
I used to terrify her
I used to terrify her
I used to terrify her
I used to sing,
We used to sing,
I used to know her
Used to know all about her
Used to need her
Now there's something about her
I used to torchure her
It's the best way around her
Used to know her
Now she just doesn't matter
Oh yeah
e|---------------------|
B|---------------------|
G|--9-9-7-9-9-7-9-7----|
D|------------------10-|
A|---------------------|
E|---------------------|
She just doesn't matter
Oh yeah
She just doesn't matter
Oh yeah
She just doesn't matter
Oh yeah
Oh yeah
Oh yeah
Oh yeah


Ваше мнение



Капча