The Morning Sad-Veruca Salt
Eight Arms To Hold You
E A D G B E
1st Verse: Fig 1.
...wake up and talk to me...
pm
e-----------------------------------------------------------------
b-----------------------------------------------------------------
g-----------------------------------------------------------------
d-2-2-2---6-6-6---7-7-7-7-7-7-7---2-2-2---9-9-9---4-4-4-4-4-4-4---
a-2-2-2---6-6-6---7-7-7-7-7-7-7---2-2-2---9-9-9---4-4-4-4-4-4-4---
e-0-0-0-0-4-4-4-0-5-5-5-5-5-5-5-0-0-0-0-0-7-7-7-0-2-2-2-2-2-2-2-0-
pm
e-----------------------------------------------------------------
b-----------------------------------------------------------------
g-----------------------------------------------------------------
d-2-2-------7-7---2-2---9-9-9-9---7-7-7-7-7-7-7-7-7-7-7-7-7-7-7---
a-2-2-------7-7---2-2---9-9-9-9---7-7-7-7-7-7-7-7-7-7-7-7-7-7-7---
e-0-0-0-0-0-5-5-0-0-0-0-7-7-7-7-0-5-5-5-5-5-5-5-5-5-5-5-5-5-5-5-0-
Pre Chorus: Fig 2.
e-----------------------------------------------------------------
b-----------------------------------------------------------------
g-------------------------4--4-4----------------------------------
d-4-4-4/7---7-7-7---2-----4--4-4----7--7--7-7-7-9-9-9-9-9---7-7---
a-4-4-4/7---7-7-7---2-----2--2-2----7--7--7-7-7-9-9-9-9-9---7-7---
e-2-2-2/5---5-5-5-0-0-2-4-2--2-2-0--5--5--5-5-5-7-7-7-7-7---5-5-0-
Chorus: Fig 3. (Gtr 1.)
e-----------------------------------------------------------------
b-----------------------------------------------------------------
g-----------------------------------------------------------------
d-2---2-2-7-7---4--4--4-4--4--4---2---2-2-7-7---4--4--4-4--4--4---
a-2---2-2-7-7---4--4--4-4--4--4---2---2-2-7-7---4--4--4-4--4--4---
e-0---0-0-5-5-0-2--2--2-2--2--2-0-0---0-0-5-5---2--2--2-2--2--2-0-
Fig 3a 12 string (Gtr 3)
e-----0-------0-----------------------0-------0-------------------
b---0-------2-----------------------0-------2---------------2-2---
g-1-----1-2-----------------------1-----1-2-----------------------
d--------------/6---4---------------------------/6---4---2--4-4---
a-----------------------------------------------------------------
e-----------------------------------------------------------------
Gtr 1.
e---------------------------------0-------------------------------
b---------------------------------0-------------------------------
g---------------------------------2-------------------------------
d-2---2-2-7-7---4--4----4-4-4-4-4-2-------------------------------
a-2---2-2-7-7---4--4----4-4-4-4-4-0-------------------------------
e-0---0-0-5-5-0-2--2----2-2-2-2-2---------------------------------
Gtr 3.
e-----0-------0-------------2-2-x-0-------------------------------
b---0-------2----------0----2-2-x-0-------------------------------
g-1-----1-2-----------------3-3-x-2-------------------------------
d--------------/6---4-------4-4-x-2-------------------------------
a---------------------------------0-------------------------------
e-----------------------------------------------------------------
2nd Verse
Gtr 1.
pm
e-----------------------------------------------------------------
b-----------------------------------------------------------------
g-----------------------------------------------------------------
d-2-2-2---6-6-6---7-7-7-7-7-7-7---2-2-2---9-9-9---4-4-4-4-4-4-4---
a-2-2-2---6-6-6---7-7-7-7-7-7-7---2-2-2---9-9-9---4-4-4-4-4-4-4---
e-0-0-0-0-4-4-4-0-5-5-5-5-5-5-5-0-0-0-0-0-7-7-7-0-2-2-2-2-2-2-2-0-
Gtr 4.
e-----------------------------------------------------------------
b-----------------------------------------------------------------
g-----9-9----8-8------8-----6-6-------9-9---864-3---------------
d-----9-9----9-9------9-97-7-7-------9-9-9-------4---------------
a-----------------------------------------------------------------
e-----------------------------------------------------------------
Gtr 1.
e-----------------------------------------------------------------
b-----------------------------------------------------------------
g-----------------------------------------------------------------
d-2-2---7---7-7---2-2---9---9-9---7-7-7-7-7-7-7-7-7-7-7-7-7-7-7---
a-2-2---7---7-7---2-2---9---9-9---7-7-7-7-7-7-7-7-7-7-7-7-7-7-7---
e-0-0---5---5-5-0-0-0---7---7-7-0-5-5-5-5-5-5-5-5-5-5-5-5-5-5-5-0-
PreChorus:
Chorus:
Bridge: Gtr 5. (clean)
e--------0------------0--------------0------------0---------------
b--------0------------0--------------0----------------------------
g----8---8/----13-----13------------6----------------6---8-------
d--------9/----14-----14-----------------------------7---9-------
a-9------9/----14-----14------7----------------------7---9-------
e-----------------------------------------------------------------
e-0--------0--------------0----------------0---------0---0--------
b-----0----0--------------0----------------0---------0---0--------
g----------8----13--13----13----------6----6---------6---6--------
d----------9----14--14----14---------------7---------7---7--------
a----------9----14--14----14------7--------7---------7---7--------
e-----------------------------------------------------------------
Solo Build Up
Gtr 1&2.
e-----------------------------------------------------------------
b-----------------------------------------------------------------
g-----------------------7---7--7----------------------------------
d-4-4-4/7-7-7-7---4-4---7---7--7------7-7-7-7------7------7------
a-4-4-4/7-7-7-7---4-4---5---5--5------7-7-7-7------7------7------
e-2-2-2/5-5-5-5-0-2-2-0-5---5--5------5-5-5-5------5------5------
Gtr 4.
e-------------------------------------------------14-----14-------
b-------------------------------------------------17b----17b------
g-----------------------------------------------------------------
d-----------------------------------------------------------------
a-----------------------------------------------------------------
e-----------------------------------------------------------------
Solo:
e-14--------------------------0----------0----------------14------
b-17b~~~~~~~~r-14---16-16brbr---14br--12-9---12/14/17-----17b~~~~-
g-----------------------------------------------------------------
d-----------------------------------------------------------------
a-----------------------------------------------------------------
e-----------------------------------------------------------------
e-(14)--------------------------------------------12-12-14b-(14)--
b-(17b)~~~~~rb------/21-21-21br---1912-----12-14-----------------
g---------------16------------------------------------------------
d-----------------------------------------------------------------
a-----------------------------------------------------------------
e-----------------------------------------------------------------
e-12---14p12------------------------------------------------------
b------------14p12-15p14-12---------------------------------------
g---------------------------13---13br--11--9------6----4-----2--1-
d-----------------------------------------------------------------
a-----------------------------------------------------------------
e-----------------------------------------------------------------
3rd Verse: Gtr 5
e------0----------0--------------0-----------0--------------------
b---------0-------------------0-----------0-----0--4----2---------
g--------------------------2---------2-------------4-------2------
d--------------------------------------------------4--------------
a--------------------0-----------------------------2--------------
e------------4----------------------------------------------------
e-2------------4-----5-----4-----7-----5--------------------------
b-2------------5-----5-----5-----4-----5--------------------------
g-3------------4-----2-----4-----4-----2--------------------------
d-2------------------2-----------4-----2--------------------------
a-4------------------0-----------------0--------------------------
e-2---------------------------------------------------------------
Outro Chorus:
e-----------------------------------------------------------------
b-----------------------------------------------------------------
g-----------------------------------------------------------------
d-2---2-2-7-7---4--4--4-4--4--4---2---2-2-7-7---4--4--4-4--4--4---
a-2---2-2-7-7---4--4--4-4--4--4---2---2-2-7-7---4--4--4-4--4--4---
e-0---0-0-5-5-0-2--2--2-2--2--2-0-0---0-0-5-5---2--2--2-2--2--2-0-
pm
e-----------------------------------------------------------------
b-----------------------------------------------------------------
g-----------------------------------------------------------------
d-2---2-2-7-7---4-4-4-4--101010---2-2-2---7-7---4-4-4-4--101010---
a-2---2-2-7-7---4-4-4-4--101010---2-2-2---7-7---4-4-4-4--101010---
e-0---0-0-5-5-0-2-2-2-2-0-8-8-8-0-0-0-0-0-5-5-0-2-2-2-2-0-8-8-8-0-
pm
e-----------------------------------------------------------------
b-----------------------------------------------------------------
g-----------------------------------------------------------------
d-2-2-2---7-7---4-4-4-4--101010---2-2-2---7-7---4-4-4-4--101010---
a-2-2-2---7-7---4-4-4-4--101010---2-2-2---7-7---4-4-4-4--101010---
e-0-0-0-0-5-5-0-2-2-2-2-0-8-8-8-0-0-0-0-0-5-5-0-2-2-2-2-0-8-8-8-0-
e-----------------------------------------------------------------
b-----------------------------------------------------------------
g-----------------------------------------------------------------
d-2-2-2---7-7---4-(4)--41010-12-12--------------------------------
a-2-2-2---7-7---4-(4)--41010-12-12--------------------------------
e-0-0-0-0-5-5-0-2-(2)--2/8-8-10-10-0------------------------------
Outro:
e-----------------------------------------------------------------
b-----------------------------------------------------------------
g-----------------------------------------------------------------
d-2--2-2-7-7---4--4-4-1010-12-12---2--2-2-7-7---4--4-4-1010-12-12-
a-2--2-2-7-7---4--4-4-1010-12-12---2--2-2-7-7---4--4-4-1010-12-12-
e-0--0-0-5-5-0-2--2-2--8-8-10-10-0-0--0-0-5-5-0-2--2-2--8-8-10-10-
e-----------------------------------------------------------------
b--------------------------------------------------------9--------
g--------------------------------------------------------9--------
d-2--2-2-7-7---4--4-4-1010-12-12---2--2-2-7-7-7-7-2-2-2--9--------
a-2--2-2-7-7---4--4-4-1010-12-12---2--2-2-7-7-7-7-2-2-2--7--------
e-0--0-0-5-5-0-2--2-2--8-8-10-10-0-0--0-0-5-5-5-5-0-0-0--0--------
that’s all
finally a correct tab of this song......
trevor jones
[email protected]





Ваше мнение



Капча