m: "D'ArcyZero the Goddess of Wine"
Subject: v/veruca_salt/straight.crd
Date: Wed, 01 Apr 1998 20:58:48 PST
the other tab for Straight was kinda off so heres mine:
tabbed by D*Arcy ([email protected])
Straight (Louise Post) from Eight Arms to Hold You
feedback intro (I couldn't figure it out)
Riff 1
e------------------------- h=hammer on
B------------------------- X=muted string
G------------------------- s=slide
D-7--4--4--9---4--4--7--4- b=bend
A-7--4--4--9---4--4--7--4- 2x p=pull off
E-5--2--2--7---2--2--5--2-
Riff 2
e-----------------------------------------------------------
B----------------------------------4s7----------------------
G----------------------------------4s7----------------------
D-4----4--4--4-----4--4---4----4---XsX---4--4-4-4-4-4---4-4-
A-4----4--4--4-----4--4---4----4---2s5---4--4-4-4-4-4---4-4-
E-2----2--2--0h2---2--2---0h2--2---------2--2-2-2-2-2---2-2-
e--------------------------------------------------------
B----------4s7------------------------------------4--4s7-
G----------4s7------------------------------------4--4s7-
D-4--4--4--XsX----4--4--4--4--4--4---4--4--4---4--X--XsX-
A-4--4--4--2s5----4--4--4--4--4--4---4--4--4---4--2--2s5-
E-2--2--2---------2--2--2--2--2--0h2-2--2--0h2-2---------
e----------------------------------
B----------------------------------
G----------------------------------
D----4--4--4--4-----4-----4--4---4-
A----4--4--4--4-----4-----4--4---4-
E----2--2--2--2-----2-----2--2---2-
Riff 3: 2x
e------------------------------------------------------
B------------------------------------------------------
G------------------------------------------------------
D-7-4-4-9--4-4-7-4--7-4-4-9--4-4-7-4--7-4-4-9--4-4-7-2-
A-7-4-4-9--4-4-7-4--7-4-4-9--4-4-7-4--7-4-4-9--4-4-7-2-
E-5-2-2-7--2-2-5-2--5-2-2-7--2-2-5-2--5-2-2-7--2-2-5-2-
e------------------
B------------------
G------------------
D-5-5-5-5--5-5-5-5-
A-5-5-5-5--5-5-5-5-
E-3-3-3-3--3-3-3-3-
Riff 2
Riff 3 2x
Riff 4
--------------------------------------------------------------------
--------------------------------------------------------------------
--------------------------------------------------------------------
-7-4-4-9--4-4-7-4--7-4-4-9--4-4-7--7-4-4-9--4-4-7-4--7-4-4-9--4-4-7-
-7-4-4-9--4-4-7-4--7-4-4-9--4-4-7--7-4-4-9--4-4-7-4--7-4-4-9--4-4-7-
-5-2-2-7--2-2-5-2--5-2-2-7--2-2-5--5-2-2-7--2-2-5-2--5-2-2-7--2-2-5-
solo
G-16b---16b---16b---16b---16b---14--14b---14---14--14----------
D-----------------------------------------------------16p14-16-
e----------------------------14---14-
B-------------17-17-14-17b-----------
G-14-16p14-16------------------------
Riff 2
Riff 3 3x
Riff 4 3x
lyrics:
You sleep better when you're
You eat better when you're
You sing better when you're
You need me more when you're straight
Is this the weekend? Is that your girlfriend?
No
She's green and innocent
You smoke her like she's incense
You smile
You smile
You smile
Stay straight for me
Stay straight for me
I'll wait til summers over
I'll love you through october
I'll give you everything
I'll trade you anything for her
Yeah, oh yeah
Stay straight for me
Stay straight for me
Stay straight for me
hope you like it! it took a LONG time to figure the whole thing out.
Theres another guitar playing some different stuff in some parts, but it
sounds fine like this

______________________________________________________
Get Your Private, Free Email at http://www.hotmail.com





Ваше мнение



Капча