Straight-Veruca Salt
Eight Arms To Hold You
E A D G B E
* = harmonic
v = bar dive
Intro: Free Time, Feedback Pitches
Gtr 1.
e-----------------------------------------------------------------
b-----------------------------------------------------------------
g-(8)------------------------(8)---------(9)-(8)---------(9)------
d-----------------------------------------------------------------
a-----------------------------------------------------------------
e-----------------------------------------------------------------
D# E D# E
Gtr 2.
e-----------------------------------------------------------------
b-----------------------------------------------------------------
g----------------------------------------(11)---------------------
d-----------------------------------------------------------------
a-----------------------------------------------------------------
e-----------------------------------------------------------------
C#
Song Starts:
Gtr 1.
e-----------------------------------------------------------------
b-----------------------------------------------------------------
g-(9)---(11)----------------(11)---------(11)---------------------
d-----------------------------------------------------------------
a-----------------------------------------------------------------
e-----------------------------------------------------------------
Gtr 2.
e-----------------------------------------------------------------
b-----------------------------------------------------------------
g-(11)-----(9)---------------------------(11)---------------------
d-----------------------------------------------------------------
a-----------------------------------------------------------------
e-----------------------------------------------------------------
Gtr 3.
e------2/14-------14--------12-----/14---14------------14------
b-142--------/14--------/12--------/14---14-------2/14-----/12--
g-------------------------------9---------------------------/13--
d-----------------------------------------------------------------
a-----------------------------------------------------------------
e-----------------------------------------------------------------
F# note continues feedback
Gtr 4.
e-----------------------------------------------------------------
b-----------------------------------------------------------------
g-----------------------------------------------------------------
d-7-4-4-9-4-4-7-4-7-4-4-9-4-4-7-4-7-4-4-9-4-4-7-4-7-4-4-9-4-4-7-4-
a-7-4-4-9-4-4-7-4-7-4-4-9-4-4-7-4-7-4-4-9-4-4-7-4-7-4-4-9-4-4-7-4-
e-5-2-2-7-2-2-5-2-5-2-2-7-2-2-5-2-5-2-2-7-2-2-5-2-5-2-2-7-2-2-5-2-
Gtr 3.
e-----------------------------------------------------------------
b---------------------------------2-----4-----2---2-----4-----2---
g---------------------------------2-----4-----2---2-----4-----2---
d---------------------------------2-----4-----2---2-----4-----2---
a-----------------------------------------------------------------
e-----------------------------------2-2---2-2---2---2-2---2-2-----
1st Verse: Fig 1. (Gtr 3.)
e-----------------------------------------------------------------
b---------------------------4/7-----------------------------4/7---
g---------------------------4/7-----------------------------4/7---
d-4--4------4------4--------x-x--------4-----4-----4--------x-x---
a-4--4------4------4-----2--2/5--------4-----4-----4-----2--2/5---
e-2--2-2--2-2-2-2--2-2-2---------2-2-2-2-2-2-2-2-2-2-2-2---------2
Fig 1a. (Gtr 4.)
e-----------------------------------------------------------------
b---------------------------4/7-----------------------------4/7---
g---------------------------4/7-----------------------------4/7---
d-4--4-4--4---4-4--4---4----x-x--4---4-4-4-4---4-4-4-4-4----x-x---
a-4--4-4--4---4-4--4---4-2--2/5--4---4-4-4-4---4-4-4-4-4-2--2/5---
e-2--2-2--0h2-2-2--0h2-2---------2---2-2-2-2---2-2-2-2-2---------2
Gtr 3.
e-----------------------------------------------------------------
b--------------------------4/7------------------------------------
g--------------------------4/7------------------------------------
d-----4-----4-----4-4------x-x--------4-----4------4--------------
a-----4-----4-----4-4---2--2/5--------4-----4------4--------------
e-2-2-2-2-2-2-2-2-2-2-2---------2-2-2-2-2-2-2-2-2--2--------------
Gtr 4.
e-----------------------------------------------------------------
b-----------------------4--4/7------------------------------------
g-----------------------4--4/7------------------------------------
d---4-4-4-4---4-4-4---4-x--x-x--4-4-4-----4---4-4--4--------------
a---4-4-4-4---4-4-4---4-2--2/5--4-4-4-----4---4-4--4--------------
e---2-2-2-0h2-2-2-0h2-2---------2-2-2-----2---2-2--2--------------
Fig 2. (Gtr 3.)
e-----------------------------------------------------------------
b-2-----4-----2---2-----4-----2---2-----4-----2-------------------
g-2-----4-----2---2-----4-----2---2-----4-----2-------------------
d-2-----4-----2---2-----4-----2---2-----4-----2---5-5-5-5-5-5-5-5-
a-------------------------------------------------5-5-5-5-5-5-5-5-
e---2-2---2-2---2---2-2---2-2---2---2-2---2-2---2-3-3-3-3-3-3-3-3-
Fig 2a. (Gtr 4.)
e-----------------------------------------------------------------
b-----------------------------------------------------------------
g-----------------------------------------------------------------
d-7-4-4-9-4-4-7-4-7-4-4-9-4-4-7-4-7-4-4-9-4-4-7-4-5-5-5-5-5-5-5-5-
a-7-4-4-9-4-4-7-4-7-4-4-9-4-4-7-4-7-4-4-9-4-4-7-4-5-5-5-5-5-5-5-5-
e-5-2-2-7-2-2-5-2-5-2-2-7-2-2-5-2-5-2-2-7-2-2-5-2-3-3-3-3-3-3-3-3-
2nd Verse: Fig 1 & Fig 1a
Chorus: Fig 2 & Fig 2a
Fig 3. (Gtr 3.)
e-----------------------------------------------------------------
b-2-----4-----2---2-----4-----2---2-----4-----2---2-----4-----2---
g-2-----4-----2---2-----4-----2---2-----4-----2---2-----4-----2---
d-2-----4-----2---2-----4-----2---2-----4-----2---2-----4-----2---
a-----------------------------0-------------------------------0---
e---2-2---2-2---2---2-2---2-2-------2-2---2-2---2---2-2---2-2-----
Fig 3a. (Gtr 4.)
e-----------------------------------------------------------------
b-----------------------------------------------------------------
g-----------------------------------------------------------------
d-7-4-4-9-4-4-7-4-7-4-4-9-4-4-7---7-4-4-9-4-4-7-4-7-4-4-9-4-4-7---
a-7-4-4-9-4-4-7-4-7-4-4-9-4-4-7---7-4-4-9-4-4-7-4-7-4-4-9-4-4-7---
e-5-2-2-7-2-2-5-2-5-2-2-7-2-2-5---5-2-2-7-2-2-5-2-5-2-2-7-2-2-5---
Gtr 1. Solo build up
e------------------------------------------------------------*16b-
b-----------------------------------------------------------------
g-----------------------------------------------------------------
d-----------------------------------------------------------------
a-----------------------------------------------------------------
e-----------------------------------------------------------------
Solo:
e-----------------------------------------------------------------
b-----------------------------------------------------------------
g-16b----16b----16b----16b----16br--14--14b~~~~~--14-------14-----
d-----------------------------------------------------------------
a-----------------------------------------------------------------
e-----------------------------------------------------------------
e--------------------------------------------------14------14-----
b--------------------------17----14-17--17b~~~~~~~----------------
g-------------14--16p14-16----------------------------------------
d---16p14--16-----------------------------------------------------
a-----------------------------------------------------------------
e-----------------------------------------------------------------

3rd Verse:
e-----------------------------------------------------------------
b--------------------------4/7---------------------------4/7------
g--------------------------4/7---------------------------4/7---3--
d---4-4-----4-----4--------x-x--------4-----4-----4------x-x---4--
a---4-4-----4-----4-----2--2/5--------4-----4-----4---2--2/5---4--
e---2-2-2-2-2-2-2-2-2-2---------2-2-2-2-2-2-2-2-2-2-2----------2--
e-----------------------------------------------------------------
b--------------------------------4/7------------------------------
g---3----3----3----3----3-3-3----4/7------3--3--------------------
d---4----4----4----4----4-4-4----x-x------4--4--------------------
a---4----4----4----4----4-4-4-2--2/5------4--4--------------------
e---2----2----2----2----2-2-2-------------2--2--------------------
that’s all
trevor jones
[email protected]





Ваше мнение



Капча