This tab by jason miles

Shimmer Like a Girl - by Veruca Salt from the album "Blow it out your Ass!"
===================

Dropped-D tuning [D A D G B E] it doesn't HAVE to be dropped-d, but i find
it much easier to play, meaner as well.

(first 15 sec or so is just feedback)
guitar 1 distortion

intro - 2 times

e|-----------------------------------------------------------------------
b|-----------------------------------------------------------------------
g|-----------------------------------------------------------------------
d|--6----6--6--5----5--5--3----3-/6-6----6-------------------------------
a|--4----4--4--3----3--3--1----1-/4-4----4--5------------5----------5--5-
d|------------------------------------------5------------5----------5--5-

verse - This is done 8 times or so, guitar 2 doubling
-----
e|-----------------------------------------------------------------------
b|-----------------------------------------------------------------------
g|--6----6--6--5----5--5--3----3-/6-6----6-------------------------------
d|--6----6--6--5----5--5--3----3-/6-6----6--5------------5----------5--5-
a|--4----4--4--3----3--3--1----1-/4-4----4--5------------5----------5--5-
d|------------------------------------------5------------5----------5--5-

then this (transition)

all this is palm-muted, except the last four or so
e|-----------------------------------------------------------------------
b|-----------------------------------------------------------------------
g|-----------------------------------------------------------------------
d|--6---6---6---6---6---6---6---6---6---6--6-6-6---------------------------
a|--6---6---6---6---6---6---6---6---6---6--6-6-6---------------------------
d|--6---6---6---6---6---6---6---6---6---6--6-6-6---------------------------

chorus - done 4 times (shimmer shimmer like a girl should now)
------
e|-----------------------------------------------------------------------
b|-----------------------------------------------------------------------
g|-----------------------------------------------------------------------
d|--5---5---5--5--/8-8---8---8---3---3---3--3--/6-6---6---6--------------
a|--5---5---5--5--/8-8---8---8---3---3---3--3--/6-6---6---6--------------
d|--5---5---5--5--/8-8---8---8---3---3---3--3--/6-6---6---6--------------

- 4th time ends like this

e|-----------------------------------------------------------------------
b|-----------------------------------------------------------------------
g|-----------------------------------------------------------------------
d|--5---5---5--5--/8-8---8---8---3---3---3--3--/6--6--6---6--5-----5---5-
a|--5---5---5--5--/8-8---8---8---3---3---3--3--/6--6--6---6--5-----5---5-
d|--5---5---5--5--/8-8---8---8---3---3---3--3--/6--6--6---6--5-----5---5-

"shimmer sparkle while you can"
e|-----------------------------------------------------------------------
b|-----------------------------------------------------------------------
g|------------------------------------------------------------6b7-----b6-
d|--/11--11----------------------8---8--8-/11-11---5---------------------
a|--/11--11-(rest)---------------8---8--8-/11-11---5---------------------
d|--/11--11----------------------8---8--8-/11-11---5---------------------
^ (hold)

This goes right back to the verse (i forget how many times) and then
the whole chorus thing again.
The only difference is during "shimmer sparkle while you can" hold that
chord instead of rest. Next is the kickin' riff during the middle of the
song which goes something like this: ("^" means accent)
(This part may not be 100% accurate, give me comments/corrections if
you got them)
______________ 7 times __________________
| |
e|-----------------------------------------------------------------------
b|-----------------------------------------------------------------------
g|-----------------------------------------------------------------------
d|--3--3--X---6--8-8-8-5-5--5--X---8--10-10-10--------8------------------
a|--3--3--X---6--8-8-8-5-5--5--X---8--10-10-10--then--8-(held for 2 bars)
d|--3--3--X---6--8-8-8-5-5--5--X---8--10-10-10--------8------------------
^ ^ ^ ^ ^ ^ ^ ^

guitar 1, quiet dist. (4 times or so)

e|-----------------------------------------------------------------------
b|-----------------------------------------------------------------------
g|-----------------------------------------------------------------------
d|-----------------------------------------------------------------------
a|--5---5---5--5--/8-8---8---8---3---3---3--3--/6--6--6-6-6--------------
d|--5---5---5--5--/8-8---8---8---3---3---3--3--/6--6--6-6-6--------------

guitar 2 comes in playing the main chorus riff, which gets louder and goes
for quite a while during the last chorus and the "doo do doo"s.

outro

e|-----------------------------------------------------------------------
b|-----------------------------------------------------------------------
g|----------------------------------------------------------------------
d|--5--5--------5--5--------5--5--------5--5--------5--5-----------------
a|--5--5-(rest)-5--5-(rest)-5--5-(rest)-5--5-(rest)-5--5-----------------
d|--5--5--------5--5--------5--5--------5--5--------5--5-----------------
(drums out)
e|-----------------------------------------------------------------------
b|-----------------------------------------------------------------------
g|--------------------8~----------8~----------8~-------------------------
d|--6--6--------6--6--------6--6--------6--6--------6--6-----------------
a|--6--6-(rest)-6--6--------6--6--------6--6--------6--6-(off)-----------
d|--6--6--------6--6--------6--6--------6--6--------6--6-----------------

i'm not sure on the outro either, i'd love some feedback.
[email protected]


Ваше мнение



Капча