Don’t Make Me Prove It-Veruca Salt
Eight Arms To Hold You
E A D G B E
( ) = harmonics
1st Verse: Fig 1. x2
...Zero one,...
e-----------------------------------------------------------------
b-----------------------------------------------------------------
g-----------------------------------------------------------------
d-----------------------------------------------------------------
a---1-0---5/7-7-----1-0---5/7-7-----1-0---5/7-7-5---5-5-7---7-7-7-
e-0-----0-------0-0-----0-------0-0-----0-------3---3-3-5---5-5-5-
Pre Chorus: Fig 2. (Gtr 1 & 2)
pm
e-----------------------------------------------------------------
b-----------------------------------------------------------------
g-----------------------------------------------------------------
d-----------------------------------------------------------------
a-4-4-4-4-4-4-4-5-5-5-5-7-7-7-7-7-4-4-4-4-4-4-4-5-5-5-5-7-7-7-7---
e-2-2-2-2-2-2-2-3-3-3-3-5-5-5-5-5-2-2-2-2-2-2-2-3-3-3-3-5-5-5-5-0-
Riff A x2 (Gtr 3.)
e-----------------------------------------------------------------
b-----------------------------------------------------------------
g-----------------------------------------------------------------
d-----(2.3)---(2.3)---(2.3)---------------------------------------
a-(1.6)---(1.6)---(1.6)---(1.6)-----------------------------------
e-----------------------------------------------------------------
Chorus: Fig 3. x2
e-----------------------------------------------------------------
b-----------------------------------------------------------------
g-----------------------------------------------------------------
d-9----7---2---9--9-9---4p2-2-2---9----7---2---9--9-9---4p2-2-2---
a-7----5---0---7--7-7-------------7----5---0---7--7-7-------------
e-------------------------------0-------------------------------0-
then
Gtr 1 & 2
e-----------------------------------------------------------------
b-----------------------------------------------------------------
g-----------------------------------------------------------------
d-9----7---2---9--9-9---4p2-2-2---9----7---2---9--9-9---4p2-2-2---
a-7----5---0---7--7-7-------------7----5---0---7--7-7-------------
e-------------------------------0-------------------------------0-
Riff B (Gtr 4. w/ flanger)
e-----------------------------------------------------------------
b-----------------------------------------------------------------
g-9-9-911/13-13-13-9-9-9-911/13-13-13-9-9-9-911/14-14-14-13-13-13-
d-----------------------------------------------------------------
a-7-7-7-9/11-11-11-7-7-7-7-9/11-11-11-7-7-7-7-9/12-12-12-11-11-11-
e-----------------------------------------------------------------
(ran outta room here, Riff B cont.)
e-----------------------------------------------------------------
b-----------------------------------------------------------------
g-13-9--9----11---------------------------------------------------
d-----------------------------------------------------------------
a-11-7--7-----9---------------------------------------------------
e-----------------------------------------------------------------
Riff B1 (Gtr 4.)
e-----------------------------------------------------------------
b-----------------------------------------------------------------
g-9---------------------------------------------------------------
d-----------------------------------------------------------------
a-7---------------------------------------------------------------
e-0---------------------------------------------------------------
Riff C (Gtr 1 & 2)
e-----------------------------------------------------------------
b-----------------------------------------------------------------
g-----------------------------------------------------------------
d-----------------------------------------------------------------
a---1-0---5/7-7-----1-0---5/7-7-----1-0---5/7-7-----1-0---5/7-----
e-0-----0-------0-0-----0-------0-0-----0-------0-0-----0---------
Fill 1 (Gtr 3.)
all harmonics
e-----------------------------------------------------------------
b-----------------------------------------------------------------
g-----------------------------------------------------------------
d-----------------------------------------------------------------
a-----------------------------------------------------------------
e-------------------------------------2.6-2.6-2.6-2.6-2.6-2.6-2.6-
Verse 2: Fig 1 x2, with
Gtr 3.
all harmonics
e-----------------------------------------------------------------
b-----------------------------------------------------------------
g-----------------------------------------------------------------
d-----------------------------------------------------------------
a-----------------------------------------------------------------
e-4-2.6-2.6-3-2.6-2.6-2.6-2.6-4-2.6-2.6-3-2.6-2.6-3-2.6-2.6---2.6-
right before bridge
e-----------------------------------------------------------------
b-----------------------------------------------------------------
g-9--9-------------7--7-------------2-----------------------------
d-9--9-------------7--7-------------2--------------4--7--4--------
a-7--7-------------5--5-------------0-----------------------------
e--------------------------------------------------2--5--2--0-----
Bridge:
e-----------------------------------------------------------------
b-----------------------------------------------------------------
g-----------------------------------------------------------------
d---------2----4-7-4----------2-----4-7-4----------2----4-7-4-----
a-------2-------------------2--------------------2----------------
e-(0)-0--------2-5-2--0-(0)---------2-5-2--0-(0)--------2-5-2--0--
e-----------------------------------------------------------------
b-----------------------------------------------------------------
g-----------------------------------------------------------------
d---------2----4-7-4------------2---------------------------------
a-------2-----------------------2---------------------------------
e-(0)-0--------2-5-2--0-(0)---------------------------------------
x2
pm
e-----------------------------------------------------------------
b-----------------------------------------------------------------
g-----------------------------------------------------------------
d-6-6-6-6-6-6-6-6-------------------9-9-9-9-9-9-9-9-9-9-9-9-9-9-6-
a-4-4-4-4-4-4-4-4-7-7-7-7-7-7-7-7-7-7-7-7-7-7-7-7-7-7-7-7-7-7-7-4-
e-----------------5-5-5-5-5-5-5-5-5-------------------------------
e-----------------------------------------------------------------
b-----------------------------------------------------------------
g-----------------------------------------------------------------
d-6-6-6-6-6-6-6-7-(7)-7--------(7)-7-7----------------------------
a-4-4-4-4-4-4-4-5-(5)-5--------(5)-5-5-7-7---------(7)---------7--
e--------------------------------------5-5---------(5)---------5--
Chorus: Fig 3 x10
Riff B
that’s all
trevor jones
[email protected]





Ваше мнение



Капча