#----------------------------------PLEASE NOTE--------------------------------#
#This file is the author's own work and represents their interpretation of the#
#song. You may only use this file for private study, scholarship, or research.#
#-----------------------------------------------------------------------------#

Date: Wed, 29 Apr 1998 14:21:30 PDT
From: D'ArcyZero the Goddess of Wine
Subject: v/veruca_salt/all_hail_me.crd

All Hail Me by Veruca Salt (written by Louise Post, and from American
Thighs) tabbed by: D*Arcy *no timing shown*

D5-10,12,x,x,x,x E5-0,2,x,x,x,x F5-1,3,x,x,x,x

Riff 1 play 6x
e--------------------------------------------------|
B--------------------------------------------------|
G--------------------------------------------------|
D-3--3--3-s-11-10-10-10-10-10-10-10-10-10-10-10-10-|
A-3--3--3-s-9--10-10-10-10-10-10-10-10-10-10-10-10-|
E-1--1--1-s-9--8--8--8--8--8--8--8--8--8--8--8--8--|
1st & 2nd times: no lyrics
3rd: So sorry lady
4th: So sorry now
5th: I've killed you baby
6th: I don't know how

* Riff 2 *
e-------------------------------------------|
B-------------------------------------------|
G-------------------------------------------|
D-8--8--8--8--8--8--8-s-3--3--3--3--3--3--3-|
A-6--6--6--6--6--6--6-s-1--1--1--1--1--1--1-|
E-6--6--6--6--6--6--6-s-1--1--1--1--1--1--1-|
So sorry, so sorry now

e-------------------------------------------------------|
B-------------------------------------------------------|
G-------------------------------------------------------|
D-3--3--3-s-11-10-10-10-10-10-10-10-10-10-10-10-10-9--9-|
A-3--3--3-s-9--8--8--8--8--8--8--8--8--8--8--8--8--7--7-|
E-1--1--1-s-9--8--8--8--8--8--8--8--8--8--8--8--8--7--7-|

* Riff 3 *
e-------------------------------------------|
B-------------------------------------------|
G-------------------------------------------|
D-8--8--8--8--8--8--8-s-6--6--6--6--6--6--6-|
A-6--6--6--6--6--6--6-s-6--6--6--6--6--6--6-|
E-6--6--6--6--6--6--6-s-4--4--4--4--4--4--4-|
So sorry, so sorry now
Riff 1 6x
1st & 2nd X: no lyrics
3rd: So sorry mister
4th: But don't look now
5th: I've got your sister
6ht: I've shot her down

Riff 2: So sorry, so sorry now
Fill 1: F5 (1,3,3,x,x,x) three times
Riff 3: So sorry, so sorry now
Fill 2: F5 5 times, with: Cause I'm a.....

*(palm muting)
e----------------------------------------------------------|
B----------------------------------------------------------|
G----------------------------------------------------------|
D-8--8------------------------------9--9--9--9-----8--8----|
A-6--6-----9--9--9--9--11-11-11-11--7--7--7--7-----6--6----|
E-------6--7--7--7--7--9--9--9--9---------------0--------6-|
...bad man, I do what I can, I'm a bad man,

e----------------------------------------------------------|
B----------------------------------------------------------|
G----------------------------------------------------------|
D-------------------------9--9--9--9-----8--8--------------|
A-9--9--9--9--11-11-11-11-7--7--7--7-----6--6-----9--9--9--|
E-7--7--7--7--9--9--9--9--------------0--------6--7--7--7--|
I do what I can, I'm a bad man

e-------------------------------------------------------|
B-------------------------------------------------------|
G-------------------------------------------------------|
D-------------------------------------------------------|
A-9--11-11-11-11-12--12--12--12--12--12--12--12--12--12-|
E-7--9--9--9--9--10--10--10--10--10--10--10--10--10--10-|
I do what I can
* (stop palm mute)
e-----------------------------------------------------|
B-----------------------------------------------------|
G-----------------------------------------------------|
D-----------------------------------------------------|
A-14--14--14--14--14--14--14--14--14-s-15--15--15--15-|
E-12--12--12--12--12--12--12--12--12-s-13--13--13--13-|
All hail me

e------------------------------------|
B------------------------------------|
G------------------------------------|
D------------------------------------|
A-15--15--15--15--15--15--15--15--15-|
E-13--13--13--13--13--13--13--13--13-|

Riff 1 6x
1st & 2nd: no lyrics
3rd: So sorry mother
4th: I've let you down
5th: I'm soaked in blood here
6th: I can't get out

Riff 2: So sorry, so sorry now
Fill 1

e---------------------------------------------|
B---------------------------------------------|
G---------------------------------------------|
D-8--8--8--8--8--8--8--4--4--4--4--6--4-----3-|
A-6--6--6--6--6--6--6--4--4--4--4--6--4-----3-|
E-6--6--6--6--6--6--6--2--2--2--2--4--2--0--1-|
So sorry, so sorry now

Fill 1
Riff 3: So sorry, so sorry now
Fill 1
(this next part has no guitars)
Cause I'm a bad man, I do what I can, I'm a bad man,
I do what I can, I'm a bad man, I do what I can.
(then play this, w/palm mute on E5 & F5 but not D5):

D5 E5 F5
All hail me

then play Riff 1 again, and youre done : )





Ваше мнение



Капча