Vertical Horizon-Wasted(tuned to Eb , or E flat whatever you want to call it)

Verse/intro/play during solo

---------------------------
---------------------------
-------7--------------2----
-12------7--5----5------

Easy To learn just listen to figure out timing(start at 21sec)

Pre-Chorus
--------------------------
--------------------------
--------------------------
--2--2--4/5---5-----------

Chorus

--------------------------- -------------------------
--------------------------- -------------------------
---------------------------3x then_-_-_--444---444---------------
--0--0-5--0--0-7----------- --------------557--------

Thats All, just listen and you'll get it ... if you ahve any other Vertical horizon tabs
e-mail them to me at [email protected]

-Tim Pearce

P.S. Sean hurley is GOD




Ваше мнение



Капча