Vertical Horizon, Trying to Find Purpose.
Tabbed by David de la Fuente, [email protected]

1/2 step down... capo 2nd fret
E A B C#m
e-0- -0- -0- -0-
b-0- -0- -0- -0-
g-1- -2- -8- -6-
d-4- -2- -9- -6-
a-2- -0- -9- -4-
E-0- -0- -7- -x-
Intro:
E for 4 measures.
Verses:
E A E
Well the sun sets gently on your shoulders, it makes me want to touch you there,
E A E
And the light in your eyes makes me feel like there's something much better out there,
C#m E
Somthing kind
Chorus:
C#m A E
And I know, someday I might be looking around, trying to find some purpose
C#m A B
Well purpose it can't be that hard to find, as long as I've got the wind,
B (stop) E
the wind and your love to carry me.
End:
B(stop) E C#m E C#m E C#m B A E
The wind and your love, to carry me, oh, to carry me, please carry me.

Here’s the solos:
(0:04)
E|-----------------------------------------------|
B|------11—12-11---------------------------------|
G|11-13----------13—-11-13-11--------------------|
D|----------------------------13-11--------------|
A|----------------------------------13-11--------|
E|----------------------------------------13-11--|

About 1:43
E|------------5-4-----------------4-7-7---12-12-11----------------9-12
B|----5--7-5------5-7---------5-7-----------------12----------9-12----
G|4-6-----------------4---4-6-----------------------11-9—-9-11--------
D|------------------------------------------------------11------------
A|--------------------------------------------------------------------
E|--------------------------------------------------------------------
E|7-11-7-9-7----------------------------------------------------------9
B|------------7-9-7-9-7----------7-------------------------------10/12-
G|----------------------9-7-9-7----9---9-8-6-4--------4-6-8-9-8-9------
D|---------------------------------------------7-6-7-------------------
A|---------------------------------------------------------------------
E|---------------------------------------------------------------------
E|--------------------------------12
B|12-10-9-----------------12-12/14--
G|--------11-9/8-9---11/13----------
D|----------------------------------
A|----------------------------------
E|----------------------------------




Ваше мнение



Капча