Vertical Horizon- Shackled
Tabbed by: Jana Hanova

NOTE: This tab is based on a similar one by Keith Kane
Drop D, tuned Ѕ a step down
H=harmonics
h=hammer on
p=pull off
VERSE
(slide) (H)
E--------0---0---------------------
B--------5---7------(7)------------
G--------5---7------(7)------------
D---0----0---0------(7)-----2----0-
A---0-----------------------3----0-
D---0-----------------------3----0-
BRIDGE
(slide) repeat 3x then:
E--0-------------3--------0--0-----|-------------0----------------0---3--
B--0-------------3--------1--3-----|-------------0----------------0---3--
G--5---x---5-----0--------0--0-----|-------------0---------0h1p0--0---0--
D--7---x---7-----0--------2--4-----|-------------2--x--2----------2---0--
A--7---x---7-----5--------3--5-----|-------------3--x--3----------3---5--
D----------------5--------0--0-----|-------------3--x--3----------3---5--
I know now... shadows.. see Before you.......
CHORUS
E-----0-------------
B-----3-------------
G-----0-------------
D-----4----2--------
A-----5----3--------
D----------3--------
INBETWEEN VERSES/FILL
E-------------------
B-------------------
G---7--x--4--x--5---
D---7--x--4--x--5---
A---5--x--2--x--3---
D-------------------
Listen to the song for strumming and timing.
And girls, good luck trying to sing this one (it's way to low for me).
[email protected]




Ваше мнение



Капча