Vertical Horizon
Send it Up
from the CD Everything You Want
tabbed by Chris Dupont
standard tuning (EADGBE)
(Riff 1)
e------------------------------------------------------------]
b------------------------------------------------------------]
g------2-2------6-6-------7-7---7h9--9po7--------------------]
d------4-4------7-7-------7-7---7h9--9po7--------------------]
a------4-4------7-7----5--5-5---7----7-----------------------]
e-2-2--2-2---5--5-5------------------------------------------]
(Riff 2)
e--5-5---5-----5-5---5-------------------------------------]
b--5-5---5-----5-5---5----------7--------------------------]
g--7-7---6-----7-7---6-----7----9--------------------------]
d--7-7---7-----7-7---7-----9----9--------------------------]
a--5-5---7-----5-5---7-----9----7--------------------------]
e--------5-----------5-----7-------------------------------]
(Riff 3)
e-------------------------------------------------------]
b-------------------------------------------------------]
g--------9-9--7-7--9-9---------9-9--7-------------------]
d--7-7---9-9--7-7--9-9---7-7---9-9--7------7-6----------]
a--7-7---7-7--5-5--7-7---7-7---7-7--5--5/7------7-------]
e--5-5-------------------5-5----------------------------]
Verse 1:
(Riff 1 4x)
Oh you make me lay down
Oh you make me forget I am here
Oh you're making me safe now
Oh you make the faces disappear
Pre-chorus:
(Riff 2 1x)
I'm all right by the way
Everyone saves the day
Sometimes I feel it
Chorus:
(Riff 3 2x)
Send it up
Send it up now
Send it up
Send it up
Send it up now
Send it up
Verse 2:
(Riff 1 4x)
Oh I feel so close now
Oh you're taking me back from where I've been
Oh I'm not alone now
Oh you rest me up and rush me in
Pre Chorus
Chorus 2x
(Riff 4)
e---------------------------------------]
b----5h7-5-----5h7-5-----5h7-5---5-5-5--]
g--6-6---6---6-6---6---6-6---6---6-6-4--]
d---------------------------------------]
a---------------------------------------]
e---------------------------------------]
e----------------------------5-4-5/7-7---5]
b-------5h7-5-----5h7-7------5-5-5/7-7---5]
g-----6-6---6---6-6---6---6----------------]
d------------------------------------------]
a------------------------------------------]
e------------------------------------------]
e---------------------------------------]
b----5h7-5-----5h7-5-----5h7-5---5-5-5--]
g--6-6---6---6-6---6---6-6---6---6-6-4--]
d---------------------------------------]
a---------------------------------------]
e---------------------------------------]
e-----------------------------------12--12--12--12--12--]
b----5h7-5-----5h7-5-----5h7-5------10--10--10--10--10--]
g--6-6---6---6-6---6---6-6---6---6-----------------------]
d--------------------------------------------------------]
a--------------------------------------------------------]
e--------------------------------------------------------]
Instrumental: F#m--A--D--E 4x
Riff 4 1x
Pre-Chorus
Chorus 2x
Chorus (instrumental) w/ riff 5
End w/ riff 6
riff 5 (wah)
e---------------------------------------------------]
b---------------------------------------------------]
g-6-4-2-4-2----6-4-2-4-2----6-4-2-4-2--1~~~~~-------]
d---------------------------------------------------]
a---------------------------------------------------]
e---------------------------------------------------]
e-----------------------------------------------------]
b-----------------------------------------------------]
g-6-4-2-4--6-4-6-4-2-4-2----6-4-----------------------]
d-----------------------------------------------------]
a-----------------------------------------------------]
e-----------------------------------------------------]
riff 6
e----5-5----]
b-5--5-5----]
g-6--7-7----]
d-7--7-7----]
a-7--5-5----]
e-----------]




Ваше мнение



Капча