t. See http://www.olga.net/faq/ for more information. #

Date: Sun, 20 Feb 2000 14:58:05 -0800 (PST)
From: n f
Subject: v/vertical_horizon/everything_you_want.tab

"Everything You Want" by Vertical Horizon
From the Album "Everything You Want"
Written by Matt Scannell
Tuned 1/2 step down

Gtr 1 (electric) Intro/Verse
1st time 2nd time
---0-0-0-0-0-0-0-0-0-0-0-0-0-0-|-0-0--|-0-0-|
---3-5-5-3-3-5-3-5-3-5-5-3-3-5-|-8-7--|-1-0-|
-------------------------------|------|-----|
-------------------------------|------|-----|
-------------------------------|------|-----|
-------------------------------|------|-----|

Gtr 2 (acoustic) Intro/Verse
--------0--------0--------------------
--------1--------3------3------1--1---
--------0------0-0------0------0--0---
---0h2--2-0h2--2-2------0-0h2--2--2---
---0----0-0h2--2-2-0h2--2-3----3--3---
----------0----0-0--------------------

Chorus (Gtr. 1 and 2)
-3- -3- -3- -3-
-3- -3- -3- -3-
-2- -0- -0- -2-
-2- -0- -2- -0-
-0- -2- -2- -0-
-x- -3- -0- -x-
Chorus Ends On
-3-
-3-
-0-
-2-
-3-
-x-
Bridge
-0- -2- -0- -2- -0-
-0- -3- -0- -3- -1-
-0- -2- -0- -2- -0-
-2- -0- -2- -0- -2-
-2- -0- -2- -0- -3-
-0- -x- -0- -x- -x-

SONG STRUCTURE
Verse x8
Chorus x4
Verse x4
Chorus x4
Bridge x2
Verse x4
Chorus x8

TAB BY NATE SEND ALL CORRECTIONS TO [email protected]




Ваше мнение



Капча