ARTIST: VERTICAL HORIZON
SONG: ECHO
TABBED BY: DANIEL CUELLAR
KEY: G# MINOR (G# A# B C# D# E F#)
COMMENTS, SUGGESTIONS, CORRECTIONS THROUGH EMAIL PLEASE ([email protected])
TONE IN ( )
TUNING: DOWN 1/2 STEP
(D#-G#-C#-F#-A#-D#)
CHORDS
D#--3----2-----0----0----0-----2--
A#--3----3-----1----1----0-----3--
F#--0----2-----2----0----0-----4--
C#--0----0-----2----2----2-----4--
G#--2----------0----3----2-----2--
D#--3--------------------0--------
G D Am C Em Bm
(F#) (C#) (G#m) (B) (D#m) (A#m)
CHORUS
G D Am C
Echo, echo...
G D Am C
We come, and we go-woah
G D Am C
No I don't want to be just another
G D Am
Echo, echo...
VERSE RIFF (THROUGHOUT VERSE)
Em Bm Am
D#--0-0-----------0-0-----------|--2-2---------0-----------0---|
A#--0-0-----------0-0-----------|--3-3---------1-----------1---|
F#--0-0-----------0-0-----------|--4-4---------2-----------2---|
C#--2-2--x-x-x-x--2-2--x-x-x-x--|--4-4-----x---2-----------2---|
G#--2-2--x-x-x-x--2-2--x-x-x-x--|--2-2-----x---0-----------0---|
D#--0-0--x-x-x-x--0-0--x-x-x-x--|----------x-------------------|
VERSE 1 (VERSE RIFF)
Everywhere I go
There's something I really need
Everyone I know
Is someone that I want to be
Even though
I don't really know me
I better pick it up
Before I let it slip away
I better stick it out
Before I take another day
Into mouth
Every single word I say fades out
CHORUS
G D Am C
Echo, echo...
G D Am C
We come, and we go-woah
G D Am C
No I don't want to be just another
G D Am C
Echo, echo...
VERSE 2 (VERSE RIFF)
Can I open up your eyes?
Only when the clouds break?
Can I feel alive?
Even though the world shakes
Every night,
You're my quiet satellite
Can I hold you close?
Till we're out of focus
And everything I know
I don't even notice
When it all falls through
I'm here and I hear you
CHORUS
G D Am C
Echo, echo...
G D Am C
We come, and we go-woah
G D Am C
No I don't want to be just another
G D Am C
Echo, echo...
BRIDGE
Em
Do you hear me?
C
Do you hear me?
Am
Cause I need to,
D
Just to reach you
Em
Do you hear me?
C
Coming clearly?
Am
Am I hollow?
D
Just an echo
CHORUS
G D Am C
Echo, echo...
G D Am C
We come, and we go-woah
G D Am C
No I don't want to be just another
G D Am C
Echo, echo...
G D Am C
Echo, echo...
G D Am C
We come, and we go-woah
G D Am C
No I don't want to be just another
G D Am C
Echo, echo...
OUTRO (VERSE RIFF)
It's just another day
And every single word I say fades out




Ваше мнение



Капча