Vertical horizon: Angel without wings

Capo 1

D G Em
verse
e-----2---5------33------h3-2-0--------|
B-----3------0------------3-0----------|
G-----2------0-2----0------------------|
D------------0------2------------------|
A----------------22-2-----0------------|
E------------3---33-0------------------|


e-----2---5------33-------------0------|
B-----3------0----------0-3-0h2--------|
G-----2------0-2----0------------------|
D------------0------2------------------|
A----------------22-2------------------|
E------------3---33-0------------------|

repeat the first DF G GA A

e-----2---5------33--------------------|
B-----3------0------------3--0--0--2---|
G-----2------0------0-----2--0--0--2---|
D------------0------2-----0--0--0--2---|
A----------------22-2-----------0--0---|
E------------3---33-0-----2--3---------|

Bridge*/Chorus:
D G E A D G E A D G
When will I learn, love is just my fantasy disguised.

e-------------------------------------|
B--------2--0-0-0h3p------------------|
G--------2--0-------------8x----------|
D-------------------------------------|
A----0--------------------------------|
E--0----------------------------------|

tabbed by [email protected]




Ваше мнение



Капча