Sweet Jane, Velvet Underground
Submited by Brad Pert
 
 
Main Part:  x8
--------------------------
--------------------------
5-5-------2-0-4---------
----5-2-3----------------
 
Chorus:x2
--------------------------
---------7-4-5-5-4-5-7
5-5-5-5-----------------
--------------------------
 
Going into verse:x1
--------------------------
----------7-4-5-5-4-5-7--
5-5-5-5------------------6
----------------------------




Ваше мнение



Капча