Song : Sunday Morning
Artist : The Velvet Underground
Album : The Velvet Underground and Nico -1967
Tabbed by: Francesco Cangemi ([email protected])
Hiya. This is the first song I tab (and I've been playing the
bass for just two weeks) , so do not blame me for my mistakes.
Tuned 6 frets (!) down; G and D not used.
*** QUICK REFERENCE ***
Intro:
G |------------------------------------------------------------
D |------------------------------------------------------------
D#|--92-------------------------92---------------------------
A#|------------------------------------------------------------
Verse (x2):
G |------------------------------------------------------------
D |------------------------------------------------------------
D#|--2-2--2---92--------------1-2-2--2---92--------------1---
A#|---------------0-0--0---2-4----------------0-0--0---2-4-----
G |------------------------------------------------------------
D |------------------------------------------------------------
D#|--2-2--2-1----1-----------1-2-4-4--4---4----------------1---
A#|----------------4-4--4--4-------------4-4--2-2--2---2-4-----
Chorus:
G |------------------------------------------------------------
D |------------------------------------------------------------
D#|--2-2--2---92--------------1-2-2--2---92--------------1---
A#|---------------0-0--0---2-4----------------0-0--0---2-4-----
G |------------------------------------------------------------
D |------------------------------------------------------------
D#|-(4)----(4)----(4)----(4)---0-4--0-4--0-4-0-------------1---
A#|--------------------------------------------2-0-2---2-4-----
Verse, Chorus, Guitar solo (Verse),
Ending (Chorus, Verse - only the first part, two times).
*** COMPLETE VERSION ***
G |------------------------------------------------------------
D |------------------------------------------------------------
D#|--92-------------------------92---------------------------
A#|------------------------------------------------------------

G |------------------------------------------------------------
D |------------------------------------------------------------
D#|--2-2--2---92--------------1-2-2--2---92--------------1---
A#|---------------0-0--0---2-4----------------0-0--0---2-4-----

G |------------------------------------------------------------
D |------------------------------------------------------------
D#|--2-2--2-1----1-----------1-2-4-4--4---4----------------1---
A#|----------------4-4--4--4-------------4-4--2-2--2---2-4-----

G |------------------------------------------------------------
D |------------------------------------------------------------
D#|--2-2--2---92--------------1-2-2--2---92--------------1---
A#|---------------0-0--0---2-4----------------0-0--0---2-4-----

G |------------------------------------------------------------
D |------------------------------------------------------------
D#|--2-2--2-1----1-----------1-2-4-4--4---4----------------1---
A#|----------------4-4--4--4-------------4-4--2-2--2---2-4-----

G |------------------------------------------------------------
D |------------------------------------------------------------
D#|--2-2--2---92--------------1-2-2--2---92--------------1---
A#|---------------0-0--0---2-4----------------0-0--0---2-4-----

G |------------------------------------------------------------
D |------------------------------------------------------------
D#|-(4)----(4)----(4)----(4)---0-4--0-4--0-4-0-------------1---
A#|--------------------------------------------2-0-2---2-4-----

G |------------------------------------------------------------
D |------------------------------------------------------------
D#|--2-2--2---92--------------1-2-2--2---92--------------1---
A#|---------------0-0--0---2-4----------------0-0--0---2-4-----

G |------------------------------------------------------------
D |------------------------------------------------------------
D#|--2-2--2-1----1-----------1-2-4-4--4---4----------------1---
A#|----------------4-4--4--4-------------4-4--2-2--2---2-4-----

G |------------------------------------------------------------
D |------------------------------------------------------------
D#|--2-2--2---92--------------1-2-2--2---92--------------1---
A#|---------------0-0--0---2-4----------------0-0--0---2-4-----

G |------------------------------------------------------------
D |------------------------------------------------------------
D#|--2-2--2-1----1-----------1-2-4-4--4---4----------------1---
A#|----------------4-4--4--4-------------4-4--2-2--2---2-4-----

G |------------------------------------------------------------
D |------------------------------------------------------------
D#|--2-2--2---92--------------1-2-2--2---92--------------1---
A#|---------------0-0--0---2-4----------------0-0--0---2-4-----

G |------------------------------------------------------------
D |------------------------------------------------------------
D#|-(4)----(4)----(4)----(4)---0-4--0-4--0-4-0-------------1---
A#|--------------------------------------------2-0-2---2-4-----

G |------------------------------------------------------------
D |------------------------------------------------------------
D#|--2-2-2--9-7-9--------------1-2-2-2--9-7-9--------------1---
A#|---------------0-0--0---2-4----------------0-0--0---2-4-----

G |------------------------------------------------------------
D |------------------------------------------------------------
D#|--2-2--2-1----1-----------1-2-4-4--4---4----------------1---
A#|----------------4-4--4--4-------------4-4--2-2--2---2-4-----

G |------------------------------------------------------------
D |------------------------------------------------------------
D#|--2-2--2---92--------------1-2-2--2---92--------------1---
A#|---------------0-0--0---2-4----------------0-0--0---2-4-----

G |------------------------------------------------------------
D |------------------------------------------------------------
D#|-(4)----(4)----(4)----(4)---0-4--0-4--0-4-0-------------1---
A#|--------------------------------------------2-0-2---2-4-----

G |------------------------------------------------------------
D |------------------------------------------------------------
D#|--2-2--2---92--------------1-2-2--2---92--------------1---
A#|---------------0-0--0---2-4----------------0-0--0---2-4-----

G |------------------------------------------------------------
D |------------------------------------------------------------
D#|--2-2--2---92--------------1-2-2--2---92--------------1---
A#|---------------0-0--0---2-4----------------0-0--0---2-4-----

Tabbed by: Francesco Cangemi ([email protected])




Ваше мнение



Капча